Oops, an error
Loading. Please wait.

Shut Me Out tab

version 2
version 2

Whole song

Interactive

by Kutless
17,187 views 9 this week
34 commentsread comments
1 2 3 4 5
x 34
add to favorites
×
Save as Personal and add changes to this tab that will be seen only by you. Learn more ›
×
You can save this tab as Personal to edit and correct it or add notes. All changes will be seen only by you. Learn more »
launch autoscroll
font size
0
reset
how to read this tab
guitar tuner
edit
Autoscroll
slow
fast
+/-
esc
set tempo
stop
Kutless                     UPDATED 11/30/2009
Shut Me Out
Tabbed by U B the band
Tuning Db Ab Db Gb Bb Eb

Legend:
h-hammer on         \-slide down                     p-pull off
pm-palm mute        ()-How many times to play        r-return bend

Intro Guitars 1 and 2:
Eb|----------------------------|   |--------------------------------|
Bb|----------------------------|   |--------------------------------|
Gb|------7---------------------|   |--------------------------------|
Db|--0---7---0---5-h7---3------|   |--8--8--8--8---------10\--------|
Ab|--0---5---0---5-h7---3------|   |--8--8--8--8---0-0---10\--------|
Db|--0-------0---5-h7---3------|x3 |--8--8--8--8---0-0---10\--------|
                                                   pmpm

Intro Guitars 1 and 2:
Eb|----------------------------|   |--------------------------------|
Bb|----------------------------|   |--------------------------------|
Gb|------7---------------------|   |--------------------------------|
Db|--0---7---0---5-h7---3------|   |--8--8--8--8---------10\--------|
Ab|--0---5---0---5-h7---3------|   |--8--8--8--8---0-0---10\--------|
Db|--0-------0---5-h7---3------|x3 |--8--8--8--8---0-0---10\--------|
                                                   pmpm
Verse 1 Guitar 1: palm muted
Eb|-----------------------------------------------------------------|
Bb|-----------------------------------------------------------------|
Gb|-----------------------------------------------------------------|
Db|--0(x16)--------10(x16)-------5(x16)--------0(x16)---------------|
Ab|--0-------------10------------5-------------0--------------------|
Db|--0-------------10------------5-------------0--------------------|x2

Verse 1 Guitar 2: (when guitar 1 plays 2nd time)
Eb|-----------------------------------------------------------------|
Bb|--10------------10-----------------------------------------------|
Gb|--------9-h10---------9-h10---9------9-h10--9--------------------|
Db|-----------------------------------------------------------------|
Ab|-----------------------------------------------------------------|
Db|-----------------------------------------------------------------|

Pre-chorus Guitar 1:
Eb|-----------------------------------------------------------------|
Bb|-----------------------------------------------------------------|
Gb|-----------------------------------------------------------------|
Db|--0-0-0--2-2-2--3-3-----5--5--5-----0--0--0-----5--5--5----10----|
Ab|--0-0-0--2-2-2--3-3-----5--5--5-----0--0--0-----5--5--5----10----|
Db|--0-0-0--2-2-2--3-3-----5--5--5-----0--0--0-----5--5--5----10----|
                                                                    |
Pre-Chorus Guitar 2:                                                |
Eb|-----------------------------------------------------------------|
Bb|-----------------------------------------------------------------|
Gb|--7-7-7--9-9-9-1010----------------------------------------------|
Db|--x-x-x--x-x-x--x-x-----5--5--5-----0--0--0-----5--5--5----10----|
Ab|--5-5-5--7-7-7--8-8-----5--5--5-----0--0--0-----5--5--5----10----|
Db|------------------------5--5--5-----0--0--0-----5--5--5----10----|

Chorus Guitars 1 and 2:
Eb|----------------------------|   |--------------------------------|
Bb|----------------------------|   |--------------------------------|
Gb|------7---------------------|   |--------------------------------|
Db|--0---7---0---5-h7---3------|   |--8--8--8--8---------10\--------|
Ab|--0---5---0---5-h7---3------|   |--8--8--8--8---0-0---10\--------|
Db|--0-------0---5-h7---3------|x3 |--8--8--8--8---0-0---10\--------|
                                                   pmpm
Chorus Guitars 1 and 2:
Eb|----------------------------|   |--------------------------------|
Bb|----------------------------|   |--------------------------------|
Gb|------7---------------------|   |--------------------------------|
Db|--0---7---0---5-h7---3------|   |--8--8--8--8---------10\--------|
Ab|--0---5---0---5-h7---3------|   |--8--8--8--8---0-0---10\--------|
Db|--0-------0---5-h7---3------|x3 |--8--8--8--8---0-0---10\--------|
                                                   pmpm

Verse 2 Guitar 1: palm muted
Eb|-----------------------------------------------------------------|
Bb|-----------------------------------------------------------------|
Gb|-----------------------------------------------------------------|
Db|--0(x16)--------10(x16)-------5(x16)--------0(x16)---------------|
Ab|--0-------------10------------5-------------0--------------------|
Db|--0-------------10------------5-------------0--------------------|

Verse 2 Guitar 2: (when guitar 1 plays 2nd time)
Eb|-----------------------------------------------------------------|
Bb|--10------------10-----------------------------------------------|
Gb|--------9-h10---------9-h10---9------9-h10--9--------------------|
Db|-----------------------------------------------------------------|
Ab|-----------------------------------------------------------------|
Db|-----------------------------------------------------------------|

Verse 2 Guitar 1: palm muted
Eb|-----------------------------------------------------------------|
Bb|-----------------------------------------------------------------|
Gb|-----------------------------------------------------------------|
Db|--0(x16)--------10(x16)-------5(x16)--------0(x16)---------------|
Ab|--0-------------10------------5-------------0--------------------|
Db|--0-------------10------------5-------------0--------------------|
                                                                    |
Guitar 2 Continued                                                  |
Eb|-----------------------------------------------------------------|
Bb|--10------------10-----------------------------------------------|
Gb|------7---9-h10-----7---9-h10-9-----9-h10---9---7----------------|
Db|---------------------------------7-------------------------------|
Ab|-----------------------------------------------------------------|
Db|-----------------------------------------------------------------|

Pre-chorus Guitar 1:
Eb|-----------------------------------------------------------------|
Bb|-----------------------------------------------------------------|
Gb|-----------------------------------------------------------------|
Db|--0-0-0--2-2-2--3-3-----5--5--5-----0--0--0-----5--5--5----10----|
Ab|--0-0-0--2-2-2--3-3-----5--5--5-----0--0--0-----5--5--5----10----|
Db|--0-0-0--2-2-2--3-3-----5--5--5-----0--0--0-----5--5--5----10----|
                                                                    |
Pre-Chorus Guitar 2:                                                |
Eb|-----------------------------------------------------------------|
Bb|-----------------------------------------------------------------|
Gb|--7-7-7--9-9-9-1010----------------------------------------------|
Db|--x-x-x--x-x-x--x-x-----5--5--5-----0--0--0-----5--5--5----10----|
Ab|--5-5-5--7-7-7--8-8-----5--5--5-----0--0--0-----5--5--5----10----|
Db|------------------------5--5--5-----0--0--0-----5--5--5----10----|


Chorus 2 Guitars 1 and 2:
Eb|----------------------------|   |--------------------------------|
Bb|----------------------------|   |--------------------------------|
Gb|------7---------------------|   |--------------------------------|
Db|--0---7---0---5-h7---3------|   |--8--8--8--8---------10\--------|
Ab|--0---5---0---5-h7---3------|   |--8--8--8--8---0-0---10\--------|
Db|--0-------0---5-h7---3------|x3 |--8--8--8--8---0-0---10\--------|
                                                   pmpm
Chorus 2 Guitars 1 and 2:
Eb|--------------------|   |----------------------------------------|
Bb|--------------------|   |----------------------------------------|
Gb|-----7--------------|   |----------------------------------------|
Db|--0--7--0--5h7--3---|   |--8--8--8--8------10\------10\------10\-|
Ab|--0--5--0--5h7--3---|   |--8--8--8--8--00--10\--00--10\--00--10\-|
Db|--0-----0--5h7--3---|x3 |--8--8--8--8--00--10\--00--10\--00--10\-|
                                          pm       pm       pm
Bridge Guitar 1
Eb|-----------------------------------------------------------------|
Bb|-----------------------------------------------------------------|
Gb|-----------------------------------------------------------------|
Db|--8(x16)----------------0(x8)--5--7--10--8(x16)------------------|
Ab|--8---------------------0------5--7--10--8-----------------------|
Db|--8---------------------0------5--7--10--8-----------------------|
                                                                    |
Bridge Guitar 2 Solo                                                |
Eb|----------------------------------------17--15----------15--13---|
Bb|---------------------15--------18-17-15--x---x--18--15---x---x---|
Gb|--10--12-14--14-12-14--14---------------14--12---x---x--12--10---|
Db|------------------------------------------------15--12-----------|
Ab|-----------------------------------------------------------------|
Db|-----------------------------------------------------------------|

Bridge Guitar 1 Continued
Eb|-----------------------------------------------------------------|
Bb|-----------------------------------------------------------------|
Gb|-----------------------------------------------------------------|
Db|--0--------------------5----7----10------8--7---3--0-------------|
Ab|--0--------------------5----7----10------8--7---3--0-------------|
Db|--0--------------------5----7----10------8--7---3--0-------------|
                                                                    |
Bridge Guitar 2 Solo Continued                                      |
Eb|-----------------------------------------------------------------|
Bb|-----------------------------------------------------------------|
Gb|--9b(10)r-9b(10)r-9b(10)r-9b(10)r-9----10--9--12--14-------------|
Db|----------------------------------------x--x---x---x-------------|
Ab|----------------------------------------8--7--10--12-------------|
Db|-----------------------------------------------------------------|

Chorus 1 Guitars 1 and 2
Eb|----------------------------|   |--------------------------------|
Bb|----------------------------|   |--------------------------------|
Gb|------7---------------------|   |--------------------------------|
Db|--0---7---0---5-h7---3------|   |--8--8--8--8---------10\--------|
Ab|--0---5---0---5-h7---3------|   |--8--8--8--8---0-0---10\--------|
Db|--0-------0---5-h7---3------|x3 |--8--8--8--8---0-0---10\--------|
                                                   pmpm

Eb|----------------------------|   |--------------------------------|
Bb|----------------------------|   |--------------------------------|
Gb|------7---------------------|   |--------------------------------|
Db|--0---7---0---5-h7---3------|   |--8--8--8--8---------10\--------|
Ab|--0---5---0---5-h7---3------|   |--8--8--8--8---0-0---10\--------|
Db|--0-------0---5-h7---3------|x3 |--8--8--8--8---0-0---10\--------|
                                                   pmpm

Chorus 2 Guitars 1 and 2:
Eb|----------------------------|   |--------------------------------|
Bb|----------------------------|   |--------------------------------|
Gb|------7---------------------|   |--------------------------------|
Db|--0---7---0---5-h7---3------|   |--8--8--8--8---------10\--------|
Ab|--0---5---0---5-h7---3------|   |--8--8--8--8---0-0---10\--------|
Db|--0-------0---5-h7---3------|x3 |--8--8--8--8---0-0---10\--------|
                                                   pmpm
Chorus 2 Guitars 1 and 2:
Eb|--------------------|   |----------------------------------------|
Bb|--------------------|   |----------------------------------------|
Gb|-----7--------------|   |----------------------------------------|
Db|--0--7--0--5h7--3---|   |--8--8--8--8------10\------10\------10\-|
Ab|--0--5--0--5h7--3---|   |--8--8--8--8--00--10\--00--10\--00--10\-|
Db|--0-----0--5h7--3---|x3 |--8--8--8--8--00--10\--00--10\--00--10\-|
                                          pm       pm       pm

End chord (both guitars)
Eb|-----------------------------------------------------------------|
Bb|-----------------------------------------------------------------|
Gb|-----------------------------------------------------------------|
Db|--0--------------------------------------------------------------|
Ab|--0--------------------------------------------------------------|
Db|--0--------------------------------------------------------------|

Finished!

            
            
Suggest correction
Creating personal tab
Creating personal tab
You can edit any tab online and save it as your Personal.

You can edit, replace or remove any tab part or add personal notes – all changes will be seen only by you.

Personal tabs can be accessed anytime from any device, even offline.
Learn more »
comments
print report bad tab
34 comments total. Showing first comments.
+1 reply
U B the band 3,023 May 16, 2006 02:58 PM

This is my tabed out mistyped solo the 11's are suppost to be 13's sorry for the mistake-PMT
Solo(mistake version):
Eb-------------------------------17-15-11--15-11-----------------|
Bb------------------15---18-17-15--------15----------------------|
Gb----12-14-14-12-14--14--------------------------------------14-|
Db--12------------------------------------------14~~~~15-14-17---|
Ab---------------------------------------------------------------|
Db---------------------------------------------------------------|

Solo(fixed version):
Eb-------------------------------17-15-13--15-13-----------------|
Bb------------------15---18-17-15--------15----------------------|
Gb----12-14-14-12-14--14--------------------------------------14-|
Db--12------------------------------------------14~~~~15-14-17---|
Ab---------------------------------------------------------------|
Db---------------------------------------------------------------|

0 reply
jane's_diary 10 May 28, 2006 02:38 PM

I thought the tab was pretty good considering that it was his first tab. He also said there would be some mistakes. I'll fix what I thought was wrong. Great 1st tab U B the band! keep it up. JD

0 reply
jane's_diary 10 Jun 01, 2006 06:56 AM

Never mind this is his tab and it's good enough. If you could hurry up and put your tab on line I would like to see what you think he has wrong. I only noticed the mistyping in the intro/chorus and the solo but he fixed the solo. ***** STARS for effort and your 1st tab! Welcome to the world of tabbing, Good job I'll keep an eye on your work(your profile) JD

guest
You may want to rate the tab now too:
select rating
Wanna post a correction for this tab? Suggest correction