Oops, an error
Loading. Please wait.

Strong Tower album tab

version 1
version 1

Album

Whole song

Interactive

by Kutless
4,573 views 1 this week
no commentswrite comment
1 2 3 4 5
3 more votes to show rating
add to favorites
×
Save as Personal and add changes to this tab that will be seen only by you. Learn more ›
×
You can save this tab as Personal to edit and correct it or add notes. All changes will be seen only by you. Learn more »
launch autoscroll
font size
0
reset
how to read this tab
guitar tuner
edit
Autoscroll
slow
fast
+/-
esc
set tempo
stop
Author
Difficulty
1.We Fall Down

Intro:

e|---1---4---2---|
B|-2---2---2---2-|
G|---------------|
D|---------------|
A|---------------|
E|---------------|

e|-1---1------1---|-2---1---4---2----| 
B|---2---2--4---2-|---2---2---2---2--|
G|----------------|------------------|   x 3
D|----------------|------------------|
A|----------------|------------------|
E|----------------|------------------|

For the first part of the intro, the second guitar comes in 
e|----------------|------------------| 
B|----------------|------------------|
G|-4--------------|-6----------------|  
D|-4-x3--4--------|-6-x8-------------|  Dist.
A|-2-----4-x3-----|-4----------------|
E|-------2--------|------------------|


Verse 1 (clean)
e|----------------|------------------| 
B|----------------|------------------|
G|-6--------------|-4----------------|  
D|-6--6--4--------|-4----6-----------| 
A|-4--6--4--------|-2----6-----------|
E|----4--2--------|------4-----------|
I don't know the strumming but it's easy to find out
Chorus
e|----------------|------------------| 
B|----------------|------------------|
G|-4--------------|-6----------------|  
D|-4-x3--4--------|-6-x8-------------|  Dist.
A|-2-----4-x3-----|-4----------------|
E|-------2--------|------------------|

Verse 2
e|----------------|------------------| 
B|----------------|------------------|
G|-6--------------|-4----------------|  
D|-6--6--4--------|-4----6-----------| 
A|-4--6--4--------|-2----6-----------|
E|----4--2--------|------4-----------|



Chorus
e|----------------|------------------| 
B|----------------|------------------|
G|-4--------------|-6----------------|  
D|-4-x3--4--------|-6-x8-------------|  Dist.
A|-2-----4-x3-----|-4----------------|
E|-------2--------|------------------|

Solo
 

e|---1---4---2---|
B|-2---2---2---2-|
G|---------------|
D|---------------|
A|---------------|
E|---------------|

e|-1---1------1---|-2---1---4---2----| 
B|---2---2--4---2-|---2---2---2---2--|
G|----------------|------------------|
D|----------------|------------------|   
A|----------------|------------------|
E|----------------|------------------|

e|-1b(2)r--------------------------------|
B|--------2-2--------2-------------------|
G|--------------3--3---3~-----1~---------|
D|---------------------------------------|
A|---------------------------------------|
E|---------------------------------------|

e|-1b(2)r-----------1-4--9--8--6--4--2--|-1~~------|
B|--------2-2----2-2-2-2----------------|----------|
G|--------------3-----------------------|----------|
D|--------------------------------------|----------|
A|--------------------------------------|----------|
E|--------------------------------------|----------|

Chorus (clean)

e|----------------|------------------| 
B|----------------|------------------|
G|-4--------------|-6----------------|  
D|-4-x3--4--------|-6-x8-------------|  
A|-2-----4-x3-----|-4----------------|
E|-------2--------|------------------|

Play through the chorus a few more times but with distortion


----------------------------------------------------------------------------
----------------------------------------------------------------------------
2.Finding Who We Are

intro: guitar 1           (those are 11’s, not 1-1’s)\/ \/
/e-----------------------------999-777-6666-4444----/11-11-9-9-9-9-->\
|B-7776-7----------------6-7-4-------------------777--------7-7-7-7->|
|G-------6-4h6p4-3h4p4-6---------------6666-4444-------------------->|
|D------------------------------------------------------------------>|
|A------------------------------------------------------------------>|
|D------------------------------------------------------------------>|
|                                                                    |
|intro: guitar 2                                                     |
|e------------------------------------------------------------------>|
|B------------------------------------------------------------------>|
|G-------------------------------------4~~--6~~--8~~---------------->|
|D-4~~-----------------1~~-------------4~~--6~~--8~~---------------->|
|A-4~~-----------------1~~-------------2~~--4~~--6~~---------------->|
\D-4~~-----------------1~~------------------------------------------>/

verse: guitar 1
/e-----------------------------999-777-66666-44444---/11-11-9-9-9-9-->\
|B-7776-7----------------6-7-4---------------------77--------7-7-7-7->|
|G-------6-4h6p4-3h4p4-6---------------66666-44444------------------->|
|D------------------------------------------------------------------->|
|A------------------------------------------------------------------->|
|D------------------------------------------------------------------->|
|                             REPEAT THIS                             |
|verse: guitar 2                                                      |
|e------------------------------------------------------------------->|
|B------------------------------------------------------------------->|
|G-------------------------------------4-4-4-6-6-6-8-8-8-8-8-8-8-8-8->|
|D-4-4-4-4-4-4-4-3-3-3-1-1-1-1-1-1-1-1-4-4-4-6-6-6-8-8-8-8-8-8-8-8-8->|
|A-4-4-4-4-4-4-4-4-4-4-1-1-1-1-1-1-1-1-2-2-2-4-4-4-6-6-6-6-6-6-6-6-6->|
\D-4-4-4-4-4-4-4-3-3-3-1-1-1-1-1-1-1-1------------------------------->/
in You we’re living in You we’re moving in You we’re finding who we are in
You we’re living in You we’re moving in You we’re finding who we are

chorus: guitar 1
/e------------------------------------------------------->\
|B------------------------------------------------------->|
|G-444444-666666-888888-4444-444444-666666--------------->|
|D-444444-666666-888888-4444-444444-666666--------------->|
|A-222222-444444-666666-2222-222222-444444--------------->|
|D------------------------------------------------------->|
|                                                         |
|chorus: guitar 2                                         |
|e------------------------------------------------------->|
|B------------------------------------------------------->|
|G-444444-666666-888888-4444-444444-666666-8~~8~~-4~~4~~->|
|D-444444-666666-888888-4444-444444-666666-8~~8~~-4~~4~~->|
|A-222222-444444-666666-2222-222222-444444-6~~6~~-2~~2~~->|
\D------------------------------------------------------->/
and I worship You Father of lights, Spirit of truth and I worship You Jesus
we call on You, yes we call on You

---REPEAT VERSE

chorus: guitar 1
/e----------------------------------------------------->\
|B----------------------------------------------------->|
|G-444444-666666-888888-4444-444444-666666-888888-4444->|
|D-444444-666666-888888-4444-444444-666666-888888-4444->|
|A-222222-444444-666666-2222-222222-444444-666666-2222->|
|D----------------------------------------------------->|
|                                                       |
|chorus: guitar 2                                       |
|e----------------------------------------------------->|
|B----------------------------------------------------->|
|G-444444-666666-888888-4444-444444-666666-888888-4444->|
|D-444444-666666-888888-4444-444444-666666-888888-4444->|
|A-222222-444444-666666-2222-222222-444444-666666-2222->|
\D----------------------------------------------------->/
and I worship You Father of lights, Spirit of truth and I worship You Jesus
we call on You, yes we call on You

chorus: guitar 1
/e------------------------------------------------------->\
|B------------------------------------------------------->|
|G-444444-666666-888888-4444-444444-666666--------------->|
|D-444444-666666-888888-4444-444444-666666--------------->|
|A-222222-444444-666666-2222-222222-444444--------------->|
|D------------------------------------------------------->|
|                                                         |
|chorus: guitar 2                                         |
|e------------------------------------------------------->|
|B------------------------------------------------------->|
|G-444444-666666-888888-4444-444444-666666-8~~8~~-4~~4~~->|
|D-444444-666666-888888-4444-444444-666666-8~~8~~-4~~4~~->|
|A-222222-444444-666666-2222-222222-444444-6~~6~~-2~~2~~->|
\D------------------------------------------------------->/
and I worship You Father of lights, Spirit of truth and I worship You Jesus
we call on You, yes we call on You

bridge: guitar 2 (r= 11th fret)
e------------------------------------------------------->
B---------------------------------------r-r-r-r-r-r-r-r->
G---------------------------------------r-r-r-r-r-r-r-r->
D-1~~------3--4~~----6~~------8--9~~----9-9-9-9-9-9-9-9->
A-1~~------3--4~~----6~~------8--9~~----9-9-9-9-9-9-9-9->
D-1~~------3--4~~----6~~------8--9~~----9-9-9-9-9-9-9-9->
we come to worship with our voices and know the love within Your skies we
lift our hands and seek Your presence and find ourselves in who You are

chorus: guitar 1
/e----------------------------------------------------->\
|B----------------------------------------------------->|
|G-444444-666666-888888-4444-444444-666666-888888-4444->|
|D-444444-666666-888888-4444-444444-666666-888888-4444->|
|A-222222-444444-666666-2222-222222-444444-666666-2222->|
|D----------------------------------------------------->|
|                                                       |
|chorus: guitar 2                                       |
|e----------------------------------------------------->|
|B----------------------------------------------------->|
|G-----------------------------4444-666666-888888-4444->|
|D-----------------------------4444-666666-888888-4444->|
|A-----------------------------2222-444444-666666-2222->|
\D----------------------------------------------------->/
and I worship You Father of lights, Spirit of truth and I worship You Jesus
we call on You, yes we call on You

chorus: guitar 1
/e--------------------------------------------------------------------->\
|B--------------------------------------------------------------------->|
|G-444444-666666-888888-4444-444444-666666----------------------------->|
|D-444444-666666-888888-4444-444444-666666----------------------------->|
|A-222222-444444-666666-2222-222222-444444----------------------------->|
|D--------------------------------------------------------------------->|
|                                                                       |
|chorus: guitar 2                                                       |
|e--------------------------------------------------------------------->|
|B--------------------------------------------------------------------->|
|G-444444-666666-888888-4444-444444-666666-8~~8~~-4~~4~~-8~~8~~-4~~4~~->|
|D-444444-666666-888888-4444-444444-666666-8~~8~~-4~~4~~-8~~8~~-4~~4~~->|
|A-222222-444444-666666-2222-222222-444444-6~~6~~-2~~2~~-6~~6~~-2~~2~~->|
\D--------------------------------------------------------------------->/
and I worship You Father of lights, Spirit of truth and I worship You Jesus
we call on You, yes we call on You

both guitars:
e-6~~--->
B-7~~--->
G-6~~--->
D-4~~--->
A-4~~--->
D-4~~--->

----------------------------------------------------------------------------
----------------------------------------------------------------------------
3.Take Me In

Tuning: Drop D (eBGDAD)

Intro:

This intro is almost exactly like the original, but bear in mind that the intro is 
played by two guitars, which I combined into one. To make the muted strings sound right, 
your ring finger securely on the fourth fret of the D string, muting both the A and G strings.

| h :hammer-on
| / :slide
| ~ :vibrato
| x :muted string

e|----0h2--------------------------------------------|
B|--2------------------------------------------------|
G|---------------------------------------------------|
D|------------7-7-7-6-4------------------------------|
A|----------0-------------------2/4-~4---------------|
D|--------4-------------4-4-0-0--------2-4-----------|

e|----0h2--------------------------------------------|
B|--2---------------------------2---2----------------|
G|------------1-------1---------x--------------------|
D|--------------------------4-4-4-4------------------|
A|--------------------------x-x----------------------|
D|--------2-2---2-0-2---2-2-0-0----(0-0h2-2-2)-------|

e|------0h2------------------------------------------|
B|--0-2----------------------------------------------|
G|---------------------------------------------------|
D|--------------7-7-7-6-4----------------------------|
A|------------0-------------------2/4-~4-------------|
D|----------4-------------4-4-0-0--------2-4---------|

e|----0h2---------------------------------------0h2--|
B|--2---------------------------2---2-------0-2------|
G|------------1-------1---------x--------------------|
D|--------------------------4-4-4-4------------------|
A|--------------------------x-x----------------------|
D|--------2-2---2-0-2---2-2-0-0----(0-0h2-2-2)-------|

Verse:

Here the guitarist only strums the four bass strings, but, hey, they’re chords so you 
play them however you want. The tabs for the chords as they are originally played are as follows:

                       Personally, I play them like this:
  (F#m)  (E)  (D)               (F#m)  (E)  (D)
e|---------------|            e|--2-----0----2-|
B|---------------|            B|--2-----0----3-|
G|--2-----1----2-|            G|--2-----1----2-|
D|--4-----2----0-|            D|--4-----2----0-|
A|--4-----2----0-|            A|--4-----2----0-|
D|--4-----2----0-|            D|--4-----2----0-|

          F#m                      D
  Take me past the outer courts, into the Holy Place
  E                              D                E
  Past the brazen altar, Lord, I want to see Your face
          F#m                              D
  Pass me by the crowds of people, and the priests who sing your praise
    E                                                  D              E
  I hunger and thirst for your righteousness, but it’s only found one place

Chorus: (Power chords)

          F#m               E
  Take me in to the Holy of Holies
          D         E            F#m
  Take me in by the blood of the Lamb
          F#m               E
  Take me in to the Holy of Holies
           D              E            F#m
  Take the coal, touch my lips, here I am

(Replay Verse)
(Replay Chorus)
(Replay Intro)
(Replay Verse)
(Replay Chorus)x2
(Repeat last line)

End on F#m.

----------------------------------------------------------------------------
----------------------------------------------------------------------------
4.Ready For You

intro:

Dsus2/F# Dsus2/C#       Gsus2
Lord, You take my heart away 
          Asus2
With Your love
 Dsus2/F# Dsus2/C#            Gsus2
and I am willing to put on my faith
        Asus2
In Your plan

Pre-Chorus 1:

Bm       Asus2   Gsus2
Come and take my life
Bm      Asus2  Gsus2      Asus2
Make my soul refreshed in truth now

Chorus:

D/F# Dsus2/C#  Gsus2
I am ready for You
D/F#   Dsus2/C#   Gsus2  Asus2
Take my heart and make me new now
D/F# Dsus2/C# Gsus2
I am ready for You
    Bm      Asus2   Gsus2
to come and fill my soul

Verse 2:

Dsus2/F# Dsus2/C#       
Cleanse all of my mind
       Gsus2  Asus2
that is not of You
Dsus2/F#  Dsus2/C#            
Break me, teaching me how to 
Gsus2             Asus2
find rest in Your hands

Pre-Chorus 2:

Bm       Asus2   Gsus2
Come and take my life
Bm      Asus2  Gsus2      Asus2
Make my soul refreshed in truth now

Chorus

Bridge:

Bm         Dsus2/F#
Whatever it takes
               Gsus2             Asus2                  
I'm needing to make Your will be done
          Bm        Dsus2/F#
and I'm letting go of my control,
     Gsus2                   Asus2
for I see what You've done in me

Chorus x2

Outro: Bm, Asus2, Gsus2 x2
End on D/F#

Chords Used:

D/F#      (200232)
Dsus2/F#  (200230)      
Dsus2/C#  (x40230)
Gsus2     (3x0033)
Asus2     (x02200)
Bm        (x24432)

----------------------------------------------------------------------------
----------------------------------------------------------------------------
5.Draw Me Close To You

intro: guitar 1
/e-2-2-2222-2-2-2222-2-2-222-2-2-222-2-2-2222-2-2-2222-2-2-222-2-2-222---->\
|B-0-0-0000-2-2-2224-4-4-444-4-4-444-0-0-0000-2-2-2224-0-0-000-0-0-000---->|
|G------------------------------------------------------------------------>|
|D------------------------------------------------------------------------>|
|A------------------------------------------------------------------------>|
|E------------------------------------------------------------------------>|
|                                                                          |
|intro: guitar 2                                                           |
|e------------------------------------------------------------------------>|
|B------------------------------------------------------------------------>|
|G-4-4-4444--------------------------4-4-4444--------------------------4~->|
|D-4-4-4444-4-4-4444-2-2-222-2-2-222-4-4-4444-4-4-4444-2-2-222-2-2-222-4~->|
|A-2-2-2222-4-4-4444-2-2-222-2-2-222-2-2-2222-4-4-4444-2-2-222-2-2-222-2~->|
\E----------2-2-2222-0-0-000-0-0-000----------2-2-2222-0-0-000-0-0-000---->/

verse 1: guitar 1                            (\/ \/  11’s not 1-1’s)
/e------------------------------------7-7-6-9-11-11-7---6h7-4444-6h7--777->\
|B---------------------------------------------------77-------------7-777->|
|G------------------------------------------------------------------------>|
|D------------------------------------------------------------------------>|
|A------------------------------------------------------------------------>|
|E------------------------------------------------------------------------>|
|                                                                          |
|verse 1: guitar 2                                                         |
|e-2-22-222-2-2-222-2-2-2-222-2-2-222-2-2-222-2-2-2-222-4-44-444-2-22-222->|
|B-2-22-222-2-2-222-2-2-2-222-2-2-222-2-2-222-2-2-2-222-4-44-444-2-22-222->|
|G-4-44-444-4-4-444-4-3-3-333-4-4-444-3-3-333-3-4-4-444-4-44-444-4-44-444->|
|D-4-44-444-2-2-222-2-4-4-444-4-4-444-4-4-444-4-2-2-222-6-66-666-2-22-222->|
|A-2-22-222-2-2-222-2-4-4-444-2-2-222-4-4-444-4-2-2-222-6-66-666-2-22-222->|
\E----------0-0-000-0-2-2-222---------2-2-222-2-0-0-000-4-44-444-0-00-000->/
Draw me close to You never let me go I lay it all down again to hear You
say that I’m Your friend

pre-chorus: guitar 1
/e-77777777-4444-66666-7-7-7-7-7-77->\
|B-77777777-7777-77777-7-7-7-7-7-77->|
|G---------------------------------->|
|D---------------------------------->|
|A---------------------------------->|
|E---------------------------------->|
|                                    |
|pre-chorus: guitar 2                |
|e-2-22-222-2-2-22-222-2-2-2-2-2-22->|
|B-2-22-222-2-2-22-222-2-2-2-2-2-22->|
|G-4-44-444-4-4-43-333-4-4-4-4-4-44->|
|D-4-44-444-2-2-24-444-4-4-4-4-4-44->|
|A-2-22-222-2-2-24-444-2-2-2-2-2-22->|
\E----------0-0-02-222-------------->/
Help me find a way to bring me back to You

chorus: guitar 1
/e-2-2-2222-2-2-2222-2-2-222-2-2-222-2-2-2222-2-2-2222-2-2-222-2-2-222->\
|B-0-0-0000-2-2-2224-4-4-444-4-4-444-0-0-0000-2-2-2224-0-0-000-0-0-000->|
|G--------------------------------------------------------------------->|
|D--------------------------------------------------------------------->|
|A--------------------------------------------------------------------->|
|E--------------------------------------------------------------------->|
|                                                                       |
|chorus: guitar 2                                                       |
|e--------------------------------------------------------------------->|
|B--------------------------------------------------------------------->|
|G-4-4-4444--------------------------4-4-4444-------------------------->|
|D-4-4-4444-4-4-4444-2-2-222-2-2-222-4-4-4444-4-4-4444-2-2-222-2-2-222->|
|A-2-2-2222-4-4-4444-2-2-222-2-2-222-2-2-2222-4-4-4444-2-2-222-2-2-222->|
\E----------2-2-2222-0-0-000-0-0-000----------2-2-2222-0-0-000-0-0-000->/
You're all I want You're all I've ever needed

chorus: guitar 1
/e-2-2-2222-2-2-2222-2-2-222-2-2-222-4-4-4444-2-2-2222-2-2-222-2-2-222->\
|B-0-0-0000-2-2-2224-4-4-444-4-4-444-2-2-2222-2-2-2224-0-0-000-0-0-000->|
|G--------------------------------------------------------------------->|
|D--------------------------------------------------------------------->|
|A--------------------------------------------------------------------->|
|E--------------------------------------------------------------------->|
|                                                                       |
|chorus: guitar 2                                                       |
|e--------------------------------------------------------------------->|
|B-----------------------------------5-5-5555-------------------------->|
|G-4-4-4444--------------------------6-6-6666----------4-4-444-4-4-444->|
|D-4-4-4444-4-4-4444-2-2-222-2-2-222-6-6-6666-4-4-4444-4-4-444-4-4-444->|
|A-2-2-2222-4-4-4444-2-2-222-2-2-222-4-4-4444-4-4-4444-2-2-222-2-2-222->|
\E----------2-2-2222-0-0-000-0-0-000----------2-2-2222----------------->/
You're all I want Help me know You are near

verse 1: guitar 1                            (\/ \/  11’s not 1-1’s)
/e------------------------------------7-7-6-9-11-11-7---6h7-4444-6h7--777->\
|B---------------------------------------------------77-------------7-777->|
|G------------------------------------------------------------------------>|
|D------------------------------------------------------------------------>|
|A------------------------------------------------------------------------>|
|E------------------------------------------------------------------------>|
|                                                                          |
|verse 1: guitar 2                                                         |
|e-2-22-222-2-2-222-2-2-2-222-2-2-222-2-2-222-2-2-2-222-4-44-444-2-22-222->|
|B-2-22-222-2-2-222-2-2-2-222-2-2-222-2-2-222-2-2-2-222-4-44-444-2-22-222->|
|G-4-44-444-4-4-444-4-3-3-333-4-4-444-3-3-333-3-4-4-444-4-44-444-4-44-444->|
|D-4-44-444-2-2-222-2-4-4-444-4-4-444-4-4-444-4-2-2-222-6-66-666-2-22-222->|
|A-2-22-222-2-2-222-2-4-4-444-2-2-222-4-4-444-4-2-2-222-6-66-666-2-22-222->|
\E----------0-0-000-0-2-2-222---------2-2-222-2-0-0-000-4-44-444-0-00-000->/
You are my desire No one else will do no one else Can take Your place To
feel the warmth of Your embrace

pre-chorus: guitar 1
/e-77777777-4444-66666-7-7-7-7-7-77->\
|B-77777777-7777-77777-7-7-7-7-7-77->|
|G---------------------------------->|
|D---------------------------------->|
|A---------------------------------->|
|E---------------------------------->|
|                                    |
|pre-chorus: guitar 2                |
|e-2-22-222-2-2-22-222-2-2-2-2-2-22->|
|B-2-22-222-2-2-22-222-2-2-2-2-2-22->|
|G-4-44-444-4-4-43-333-4-4-4-4-4-44->|
|D-4-44-444-2-2-24-444-4-4-4-4-4-44->|
|A-2-22-222-2-2-24-444-2-2-2-2-2-22->|
\E----------0-0-02-222-------------->/
Help me find a way to bring me back to You

  REPEAT CHORUS

verse 3: guitar 1
/e------------------------------------7-7-6-9-11-11-7---6h7-4444-6h7--777->\
|B---------------------------------------------------77-------------7-777->|
|G------------------------------------------------------------------------>|
|D------------------------------------------------------------------------>|
|A------------------------------------------------------------------------>|
|E------------------------------------------------------------------------>|
|                                                                          |
|verse 1: guitar 3 (acoustic)                                              |
|e-2-22-222-2-2-222-2-2-2-222-2-2-222-2-2-222-2-2-2-222-4-44-444-2-22-222->|
|B-2-22-222-2-2-222-2-2-2-222-2-2-222-2-2-222-2-2-2-222-4-44-444-2-22-222->|
|G-4-44-444-4-4-444-4-3-3-333-4-4-444-3-3-333-3-4-4-444-4-44-444-4-44-444->|
|D-4-44-444-2-2-222-2-4-4-444-4-4-444-4-4-444-4-2-2-222-6-66-666-2-22-222->|
|A-2-22-222-2-2-222-2-4-4-444-2-2-222-4-4-444-4-2-2-222-6-66-666-2-22-222->|
\E----------0-0-000-0-2-2-222---------2-2-222-2-0-0-000-4-44-444-0-00-000->/
Draw me close to You never let me go I lay it all down again to hear You
say that I’m Your friend

pre-chorus: guitar 1
/e-77777777-4444-66666-7-7-7-7-7-77->\
|B-77777777-7777-77777-7-7-7-7-7-77->|
|G---------------------------------->|
|D---------------------------------->|
|A---------------------------------->|
|E---------------------------------->|
|                     |              |
|pre-chorus: gt. 3    |gt. 2         |
|e-2-22-222-2-2-22-222|22222--22222->|
|B-2-22-222-2-2-22-222|22222--22222->|
|G-4-44-444-4-4-43-333|44444--44444->|
|D-4-44-444-2-2-24-444|44444--44444->|
|A-2-22-222-2-2-24-444|22222--22222->|
\E----------0-0-02-222|------------->/
Help me find a way to bring me back to You

  REPEAT CHORUS 2x

  OUTRO IS “help me know You are near” PART REPEATED AGAIN; LET IT RING

----------------------------------------------------------------------------
----------------------------------------------------------------------------
6.All Who Are Thirsty

intro:
e|--------------------|-----------------|-----------------------|
B|-8-8-8-8h10-8h10-12-|-8--8h10-8h10-12-|-8-7---7h8-7h8-7-------|
G|---7-7--------------|---7-------------|-----7-----------------|
D|--------------------|-----------------|-----------------------|
A|--------------------|-----------------|-----------------------|
E|--------------------|-----------------|-----------------------|

e|-------5-7-8--------------|---------------|-----------------------|
B|---7-8-------8h10-8h10-12-|--8h10-8h10-12-|-8-8-8-10-10-10-8-8-8--|
G|-7------------------------|-7-------------|-0-0-0-0--0--0--0-0-0--|
D|--------------------------|---------------|-----------------------|
A|--------------------------|---------------|-----------------------|
E|--------------------------|---------------|-----------------------|

e|--------------|
B|-13-12-10-8---|
G|-0--0--0--0---|
D|--------------|
A|--------------|
E|--------------|

***Note the lines are not bars but simply dividing the sections up***



Verse 1:

              G
All who are thirsty
             Bm 
all who are weak
               C
come to the fountain 
                         Am   B   C
dip your heart in the stream of life
                       G
let the pain and the sorrow
            Bm 
be washed away,
                    C2
in the wave of his mercy
               Am B  C    
as deep cries out to deep, we sing

e|-------------------|
B|----8-8-10-8-------|
G|-7---7------7------|
D|-------------------|
A|-------------------|
E|-------------------|
***This plays during ALL the chorus-es***

Chorus:

G                C
Come Lord Jesus, come
G                C
Come Lord Jesus, come
G                C
Come Lord Jesus, come
G                C
Come Lord Jesus, come

Verse 2:

              G
All who are thirsty
             Bm 
all who are weak
               C
come to the fountain 
                         Am   B   C
dip your heart in the stream of life
                       G
let the pain and the sorrow
            Bm 
be washed away,
                    C2
in the wave of his mercy
               Am B  C    
as deep cries out to deep, we sing

[Play Chorus]

G          C
Won't You Come
G          C
Won't You Come

G
Nothing but your will for me I am only free You...come


***If you listen to the song then you can clearly hear the chord changes***
***with the bridge I'm just going to put how to sing it since the chords are the same***

[Play Intro tab]

Nothing but your will for me I am only free in Him
Come Lord Jesus, come 
                Nothing but your will for me I am only free in Him
Come Lord Jesus, come
                Nothing but your will for me I am only free in Him
Come Lord Jesus, come
                Nothing but your will for me I am only free in Him
Come Lord Jesus, come

***follow same chord pattern for the chorus***

----------------------------------------------------------------------------
----------------------------------------------------------------------------
7.Better Is One Day

CAPO 2

E     A   B   C#m
e|-0-|-0-|-0-|-0-|     
B|-0-|-0-|-0-|-0-|
G|-1-|-6-|-8-|-6-|
D|-2-|-7-|-9-|-6-|
A|-2-|-7-|-9-|-4-|
E|-0-|-5-|-7-|-0-|


intro
E  A  B  A


    E                             A
How lovely is Your dwelling place,
           B
Oh Lord Almighty
E                                  B
My soul longs and even faints for You
     E                          A
For here my heart is satisfied,
              B
within Your presence
   E                               B
I sing beneath the shadow of Your wings

Chorus  
         A
Better is one day in Your courts
           B
Better is one day in Your house
           A
Better is one day in Your courts
               B
Than thousands elsewhere
x2 

    E                             A
How lovely is Your dwelling place,
           B
Oh Lord Almighty
E                                  B
My soul longs and even faints for You
     E                          A
For here my heart is satisfied,
              B
within Your presence
   E                               B
I sing beneath the shadow of Your wings


Chorus x2 

E       A   C#m    B
We cry holy holy holy
E       A   C#m    B
We cry holy holy holy
E       A   C#m    B
We cry holy holy holy
E       A   C#m    B
We cry holy holy holy
E       A   C#m    B          E
We cry holy holy holy is the Lamb

----------------------------------------------------------------------------
----------------------------------------------------------------------------
8.All The Words

intro: guitar 1
/eb--55-33-2--0-2-55-33-2--0-2-55-33-2--0-2------00-2--------->\
|Bb-3--------3------------3------------3----22-33-----3-3~~--->|
|Gb----------------------------------------------------------->|
|Db----------------------------------------------------------->|
|Ab----------------------------------------------------------->|
|Db----------------------------------------------------------->|
|                                                              |
|intro: guitar 2 (acoustic)                                    |
|eb--2-22-2222-2-22-2222-2-222-2-22-2222-2-22-2222-2-222-2-22->|
|Bb--3-33-3333-3-33-3333-3-333-3-33-3333-3-33-3333-3-333-3-33->|
|Gb--2-22-2222-2-22-2222-2-222-2-22-2222-2-22-2222-2-222-2-22->|
|Db--0-00-0000-0-00-0000-0-000-0-00-0000-0-00-0000-0-000-0-00->|
|Ab--0-00-0000-0-00-0000-0-000-2-22-2222-2-22-2222-2-222-2-22->|
\Db--0-00-0000-0-00-0000-0-000-------------------------------->/

verse 1: guitar 2
eb-2-22-2222-2-22-2222-2-222-2-22-2222-2-22-2222-2-222-2-22->
Bb-3-33-3333-3-33-3333-3-333-3-33-3333-3-33-3333-3-333-3-33->
Gb-2-22-2222-2-22-2222-2-222-2-22-2222-2-22-2222-2-222-2-22->
Db-0-00-0000-0-00-0000-0-000-0-00-0000-0-00-0000-0-000-0-00-> repeat
Ab-0-00-0000-0-00-0000-0-000-2-22-2222-2-22-2222-2-222-2-22->
Db-0-00-0000-0-00-0000-0-000-------------------------------->
How do I speak of the indescribable to You I will try to explain these
feelings that are true

verse 1: guitar 1 (r= 10th fret)
/eb-7~----------9~------------7~----------9~------------>\
|Bb-8~----------r~------------8~----------r~------------>|
|Gb-7~----------9~------------7~----------9~------------>|
|Db-5~----------7~------------5~----------7~------------>|
|Ab----------------------------------------------------->|
|Db----------------------------------------------------->|
|                                                        |
|verse 1: guitar 2 (r= 10th fret)                        |
|eb-7-77-7777-7-99-9999-9-999-7-77-7777-7-99-9999-9-999->|
|Bb-8-88-8888-8-rr-rrrr-r-rrr-8-88-8888-8-rr-rrrr-r-rrr->|
|Gb-7-77-7777-7-99-9999-9-999-7-77-7777-7-99-9999-9-999->|
|Db-5-55-5555-5-77-7777-7-777-5-55-5555-5-77-7777-7-777->|
|Ab-5-55-5555-5-77-7777-7-777-5-55-5555-5-77-7777-7-777->|
\Db-5-55-5555-5-77-7777-7-777-5-55-5555-5-77-7777-7-777->/
So looking to the sky I will sing and from my heart to You I bring

chorus: guitars 1 and 2 (t= 11th fret, a= 12th fret)
eb-000000-555555-rrrrrr-555555-000000-555555-rrrrrr-555555->
Bb-333333-888888-aaaaaa-888888-333333-888888-aaaaaa-888888->
Gb-222222-777777-tttttt-777777-222222-777777-tttttt-777777->
Db-000000-555555-999999-555555-000000-555555-999999-555555->
Ab-000000-555555-999999-555555-000000-555555-999999-555555->
Db-000000-555555-999999-555555-000000-555555-999999-555555->
All of the words in all of my life that could never explain and never
describe All of my love, which is nothing to hide so I lift up my hands and
I worship I worship

---REPEAT INTRO
   You...

verse 2: guitar 2
eb-2-22-2222-2-22-2222-2-222-2-22-2222-2-22-2222-2-222-2-22->
Bb-3-33-3333-3-33-3333-3-333-3-33-3333-3-33-3333-3-333-3-33->
Gb-2-22-2222-2-22-2222-2-222-2-22-2222-2-22-2222-2-222-2-22->
Db-0-00-0000-0-00-0000-0-000-0-00-0000-0-00-0000-0-000-0-00-> repeat
Ab-0-00-0000-0-00-0000-0-000-2-22-2222-2-22-2222-2-222-2-22->
Db-0-00-0000-0-00-0000-0-000-------------------------------->
In your presence I forever choose to live I will praise You for it's all I
have to give

verse 1: guitar 1
/eb-7~----------9~------------7~----------9~------------>\
|Bb-8~----------r~------------8~----------r~------------>|
|Gb-7~----------9~------------7~----------9~------------>|
|Db-5~----------7~------------5~----------7~------------>|
|Ab----------------------------------------------------->|
|Db----------------------------------------------------->|
|                                                        |
|verse 1: guitar 2                                       |
|eb-7-77-7777-7-99-9999-9-999-7-77-7777-7-99-9999-9-999->|
|Bb-8-88-8888-8-rr-rrrr-r-rrr-8-88-8888-8-rr-rrrr-r-rrr->|
|Gb-7-77-7777-7-99-9999-9-999-7-77-7777-7-99-9999-9-999->|
|Db-5-55-5555-5-77-7777-7-777-5-55-5555-5-77-7777-7-777->|
|Ab-5-55-5555-5-77-7777-7-777-5-55-5555-5-77-7777-7-777->|
\Db-5-55-5555-5-77-7777-7-777-5-55-5555-5-77-7777-7-777->/
So looking to the sky I will sing and from my heart to You I bring

---REPEAT CHORUS 

bridge: guitar 1
eb-2~-----------5~------------2~--3-2~----0~------->
Bb-3~-----------8~------------3~----------0~--3-0~->
Gb-4~-----------7~------------2~----------2~------->
Db-4~-----------5~------------0~----------2~-------> repeat
Ab-2~-----------5~------------0~----------0~------->
Db--------------5~------------0~------------------->
By Your grace You let me come talk to You It's not that I'm worthy I thank
you Jesus For the love that You have shown 

chorus 2: first part is piano
eb-000000-555555-rrrrrr-555555->
Bb-333333-888888-aaaaaa-888888->
Gb-222222-777777-tttttt-777777->
Db-000000-555555-999999-555555->
Ab-000000-555555-999999-555555->
Db-000000-555555-999999-555555->
All of the words in all of my life that could never explain and never
describe All of my love, which is nothing to hide so I lift up my hands and
I worship 

---REPEAT CHORUS

eb-2~--->
Bb-3~--->
Gb-2~--->
Db-0~--->
Ab-0~--->
Db-0~--->
 You

----------------------------------------------------------------------------
----------------------------------------------------------------------------
9.Strong Tower

I have played this with a band so i know it is correct

INTRO
Guitar 1 (clean)
play through the verses
e ||----------------------------------------------------------------------||
B ||------------------------------------------9977------------------------||
G ||------8888994466666666-------888899446666-----------------------------||
D ||----------------------------------------------------------------------||
A ||----------------------------------------------------------------------||
E ||----------------------------------------------------------------------||

Guitar 2 (clean)
verse
play over guitar 1 picking

e ||----------------------------------------------------------------------||
B ||----------------------------------------------------------------------||
G ||-----------------66666666---------------------------------------------||
D ||--99999---7777---66666666---------------------------------------------||
A ||--99999---7777---44444444---------------------------------------------||
E ||--77777---5555--------------------------------------------------------||


both guitars
pre-chorus
e ||----------------------------------------------------------------------||
B ||----------------------------------------------------------------------||
G ||----------------------------------------------------------------------||
D ||--44444444--77777777---44444444--77777777-----------------------------||
A ||--44444444--77777777---44444444--77777777-----------------------------||
E ||--22222222--55555555---22222222--55555555-----------------------------||


chorus both guitars
e ||----------------------------------------------------------------------||
B ||----------------------------------------------------------------------||
G ||-----------666666-----------------------------------------------------||
D ||--222222---666666--777777777777---------------------------------------||
A ||--222222---444444--777777777777---------------------------------------||
E ||--000000-----------555555555555---------------------------------------||

e ||----------------------------------------------------------------------|
B ||----------------------------------------------------------------------|
G ||-----------666666----------------66-----------------------------------|
D ||--222222---666666--777777----99--66---7-------------------------------|
A ||--222222---444444--777777----99--44---7-------------------------------|
E ||--000000-----------555555----77-------5-------------------------------|              
                           ^
                                        Let ring

e ||-------------------------------------------|
B ||-------------------------------------------|
G ||------66-----------------------------------|
D ||--99--66---7-------------------------------|
A ||--99--44---7-------------------------------|
E ||--77-------5-------------------------------|

----------------------------------------------------------------------------
----------------------------------------------------------------------------
10.Jesus Lord of Heaven

Tuning: Regular E

riff 1
e|------0-------0-------0-----0-------0-------0-----0-------0-------0-|
B|--------1-------1-------------1-------1-------------1-------1-------|
G|o---------0-0-----0-0-----------0-0-----0-0-----------0-0-----0-0---|
D|o-------------------------------------------------------------------|
A|--3-3-------------------2-2-------------------0-0-------------------|
E|--------------------------------------------------------------------|

e|-----0-------0-------0--|
B|-------1-------1--------|
G|---------2-2-----2-2---o|
D|-3-3-------------------o|
A|------------------------|
E|------------------------|

riff 2         end. 1           end. 2
e|-------7----|----------------|-----------5-8-5--|
B|---5-8----8-|-5-----5-8-5----|-5-----5-8--------|
G|-5----------|-----5--------7-|-----5------------|
D|------------|----------------|------------------|
A|------------|----------------|------------------|                          
E|------------|----------------|------------------|

riff 3
e|--------------------------------------------------------------------|
B|--------------------------------------------------------------------|
G|-5-5-5-5-5-5-5-5-------------------------------------------------5--|
D|-5-5-5-5-5-5-5-5-5-5-5-5-5-5-5-5-7-7-7-7-7-7-7-7-3-3-3-3-3-3-3-3-5--|
A|-3-3-3-3-3-3-3-3-5-5-5-5-5-5-5-5-7-7-7-7-7-7-7-7-3-3-3-3-3-3-3-3-3--|
E|-----------------3-3-3-3-3-3-3-3-5-5-5-5-5-5-5-5-1-1-1-1-1-1-1-1----|

riff 4
e|----------------------------------|
B|-------------------------1--------|
G|-----2-------0-------0h2-----0----|
D|---2---2---0---0---3-------0---0--|
A|-0---------------3----------------|
E|---------3------------------------|

riff 5
e|---------------------------|
B|-----------------------1---|
G|-----2-------0-------0-----|
D|---2---2---0---0---3-------|
A|-0---------------3---------|
E|---------3-----------------|

| /  slide up
| \  slide down
| h  hammer-on
| p  pull-off
| ~  vibrato
| +  harmonic
| x  Mute note

----------------------------------------------------------------------------
----------------------------------------------------------------------------
11.I Lift My Eyes Up

Drop D

Intro Lead:

A|--12-10--7-9--5-7--9-5----|

pm = palm mute

Verse: pm
D          G       D         G
 I lift my eyes up, unto the mountains
D              G         A    G
 Where does my help come from
D              G       D          G    
 My help comes from you, maker of heaven
D        G      A     G
 Creator of the earth
 

Chorus:
D         G
 Oh how I need you Lord
D           G
 You are my only hope
D          G      A    G
 you're my only prayer
D          G
 So I will wait for you
D            G
 To come and rescue me
D            G       A   G
 To come and give me life

(Repeat Verse and Chorus as they do)

----------------------------------------------------------------------------
----------------------------------------------------------------------------
12.Word of God Speak

Guitar2:
   C2            F
e--12~~~~~12\10----------|
B----------------10~~~~--|


Intro: C2  F  -  C2  F

Verse:
            C2
I'm finding myself at aloss for words
        F 
And the funny thing is it's ok
                 C2
The last thing I need is to be heard
       F
But to hear what you would say


Chorus:
            C2
Word of God speak
                         G
Would you pour down like rain
        A  Bb
Washing my eyes to see
     F
Your majesty
                C2
To be still and know
                    G
That you're in this place 
           A  Bb
Please let me stay and rest
        F
In your holiness
            C2    F    C2    F
Word of God speak


Verse 2:
            C2    
I'm finding myself in the midst of you
           F
Beyond the music, beyond the noise
           C2
All that I need is to be with you 
           F
And in the quiet hear your voice


           (CHORUS 2X) then (FADE)

----------------------------------------------------------------------------
----------------------------------------------------------------------------
13.Arms of Love

intro:
G         D            Em
I sing a simple song of love
        C  Em         D   
to my savior, to my Jesus
G            D               Em
I'm grateful for the things you've done
        C    Em           D
my loving saviour, Precious Jesus


Am           Em                D             G
My heart is glad that you've called me your own
Am             Em              D 
and there's no place I'd rather be than in your


G D      C
Arms of love
          G  D    C
in your arms of love
             Em
holding me still
D            C
holding me near
         D       G
in your arms of love



            
            
Suggest correction
Creating personal tab
Creating personal tab
You can edit any tab online and save it as your Personal.

You can edit, replace or remove any tab part or add personal notes – all changes will be seen only by you.

Personal tabs can be accessed anytime from any device, even offline.
Learn more »
Give kudos to tab author, rate the tab!
1 2 3 4 5
comments
print report bad tab
guest
You may want to rate the tab now too:
select rating
Wanna post a correction for this tab? Suggest correction