Oops, an error
Loading. Please wait.

Vow tab

by Kutless
1,630 views 1 this week
2 commentsread comments
1 2 3 4 5
x 4
add to favorites
×
Save as Personal and add changes to this tab that will be seen only by you. Learn more ›
×
You can save this tab as Personal to edit and correct it or add notes. All changes will be seen only by you. Learn more »
launch autoscroll
font size
0
reset
how to read this tab
guitar tuner
edit
Autoscroll
slow
fast
+/-
esc
set tempo
stop
Hey wanna contact me? just add me to Xfire mines 501blackhawk ill have the nickname 
or You can ask questions on the guestbook at www.freewebs.com/overlordarmageddon

Drop D

Intro/Verse
|-------------------------------------------------------------|x2
|-------------------------------------------------------------|
|--------5----------------------------------------------------|
|----5-----5------------6--------------5----------------------|
|--3---3-----3-x------6---6--------5-----5--------------------|
|-----------------6-6-------6-x--5---5-----5-x---8-8-8/10-----|


|-------------------------------------------------------------|x2
|-------------------------------------------------------------|
|--------5----------------------------------------------------|
|----5-----5------------6--------------5--------------8-8-8-8-|
|--3---3-----3-x------6---6--------5-----5--------8-----8-8-8-|
|-----------------6-6-------6-x--5---5-----5-x--8---8---8-8-8-|

Pre-Chorus                              Chorus
|---------------------------------------------------|
|---------------------------------------------------|
|----------------------------------------5-----3----|
|--10-8-8-10-8-8-10-8--------------------5-6-1-3----|
|--10-8-8-10-8-8-10-8--------------------3-6-1-1----|
|--10-8-8-10-8-8-10-8----------------------6-1------|

(You guys figure out the strum by your selfs)

|-----------------------------------------------------------------|x2
|-----------------------------------------------------------------|
|--------5------------------------------------------------------5-|
|----5-----5------------6--------------5--------------8-8-8-8-8-5-|
|--3---3-----3-x------6---6--------5-----5--------8-----8-8-8-8-3-|
|-----------------6-6-------6-x--5---5-----5-x--8---8---8-8-8-8---|

Thats pretty much it just put them in order and you can play this rad song.

            
            
Suggest correction
Creating personal tab
Creating personal tab
You can edit any tab online and save it as your Personal.

You can edit, replace or remove any tab part or add personal notes – all changes will be seen only by you.

Personal tabs can be accessed anytime from any device, even offline.
Learn more »
comments
print report bad tab
2 comments total.
0 reply
501blackhawk 31 Dec 19, 2007 01:33 PM

whoever gave me a 1* is a retard idiot :D offence should be taken cause that tab is perfect!!! i bet u just are going
around voting 1 star to everything...

0 reply
gtr.man95 31 Aug 29, 2010 07:04 PM

This tabs alright, but i think it's in Eb standard tuning. Not Drop D.

guest
You may want to rate the tab now too:
select rating
Wanna post a correction for this tab? Suggest correction