Oops, an error
Loading. Please wait.

Your Touch Tab

version 4
version 4

Interactive

by Kutless
5,651 views 3 this week
7 commentsread comments
1 2 3 4 5
x 12
add to favorites
launch autoscroll
font size
0
reset
how to read this tab
guitar tuner
×
Best way to learn
"Your Touch"
Autoscroll
slow
fast
+/-
esc
set tempo
stop
YOUR TOUCH
KUTLESS

Tabbed by: Abner Rodriguez/guiabnerpi@hotmail.com
Song: Your Touch
Band: Kutless
Date: 29/12/04 3:20

Hey everybody this is my first tab and  I'm form Poptun, Peten Guatemala
God Bless I Hope this works for you.

Drop-D Tuning


InTrO/Verse 1

e|------------------------------------------------------------------------|
B|------------------------------------------------------------------------|
G|------------------------------------12---------------10-----------------|
D|-----5-8-5-----------8-10-8------10—---12----------8----10--------------|X2
A|---5-------5-------8-----------10--------10------8----------------------|
D|-5-----------5---8-----------10------------10—-8------------------------|

e|-----------------------------------------------------------------------|
B|-----------------------------------------------------------------------|
G|------------------------------------12---------------10----------------|
D|-----5-8-5-----------8-10-8------10—---12----------8-------------------|
A|---5-------5-------8-----------10--------10------8---------------------|
D|-5-----------5---8-----------10------------10—-8-----------------------|


PrE-ChOrUs..... Listen de CD

e|-----------------------------------------------------------------------|
B|-----------------------------------------------------------------------|
G|-----------------------------------------------------------------------|
D|---1---3---5------8--7----5-—---1---3----10--10-10-10------------------|
A|---1---3---5--------------5-----1---3----10--10-10-10------------------|
D|---1---3---5--------------------1---3----10--10—10-10------------------|

ChOrUs

e|-----------------------------------------------------------------------|
B|-----------------------------------------------------------------------|
G|-----------------------------------------------------------------------|
D|--5--5--5--------88-8--8----—3-3-333-3-----1--1-1----------------------|
A|--5--5--5--------88-8--8-----3-3-333-3-----1--1-1----------------------|
D|--5--5--5--------88-8--8-----3-3-333-3-----1--1-1----------------------|
                                             PM
VeRsE 2

e|-------------------------------------------------------------------|
B|-------------------------------------------------------------------|
G|-------------------------------12------------10--------------------|
D|----5---5---------8---10----10---—-12-----8-----10----------X2-----|
A|----5------5------8---------10------------8------------------------|
D|----5-------------8---------10------------8------------------------|

e|-------------------------------------------------------------------|
B|-------------------------------------------------------------------|
G|-------------------------------12------------10--------------------|
D|----5---5---------8---10----10---—-12-----8------------------------|
A|----5------5------8---------10------------8------------------------|
D|----5-------------8---------10------------8------------------------|


RePet de PrE-ChOruS and ChOrUs

After Chorus..

Interlude...Intro
e|---------------------------------------------------------------------|
B|---------------------------------------------------------------------|
G|-----------------5---3-----------------------------------------------|
D|----5---8---3-------------—5---8---3---------------------------------|
A|----5---8---3--------------5---8---3---------------------------------|
D|----5---8---3--------------5---8---3----—----------------------------|

Interlude-Guitar 1

e|----------------------------|
B|----------------------------|
G|----------------------------|  4X
D|---------------------—------|
A|-------3-1------------------|
D|---0--------3-5---0---------|

Interlude continuded-Guitar 1     Guitar 2

e|----------------------------|-----------------------|
B|----------------------------|-----------------------|
G|----------------------------|-----------------------|   5X
D|---------------------—------|-------0-0-0-0----PM---|
A|-------3-1------------------|-------0-0-0-0---------|
D|---0--------3-5---0---------|---—---0-0-0-0---------|


e|-----------------------------|
B|-----------------------------|
G|-----------------------------|
D|---------00000-----—---------|
A|---------00000---------------|
D|---------00000---------------|
This is the part
...I need you I need you I need you...


E|-------------------------------------------------------------------|
B|-------------------------------------------------------------------|
G|-------------------------------------------------------------------|
D|------0-0--3/5--0—-5-3---------------------------------------------|
A|------0-0--3/5--0—-5-3------------- -------------------------------|
D|------0-0--3/5--0—-5-3---------------------------------------------|
... touch.............
ChOrUs

e|--------------------------------------------------------------------|
B|--------------------------------------------------------------------|
G|--------------------------------------------------------------------|
D|--5--5--5--------88-8--8----—3-3-333-3-----1--1-1------3X-----------|
A|--5--5--5--------88-8--8-----3-3-333-3-----1--1-1-------------------|
D|--5--5--5--------88-8--8-----3-3-333-3-----1--1-1-------------------|
                                             PM
e|--------------------------------------------------------------------|
B|--------------------------------------------------------------------|
G|--------------------------------------------------------------------|
D|--5--5-5—5/88-8------—3-3-333-3-----1--1-1----------5------5X-------|
A|--5--5-5—5/88-8-------3-3-333-3-----1--1-1--ending--5---------------|
D|--5--5-5—5/88-8-------3-3-333-3-----1--1-1----------5---------------|
                                      PM

God Bless you!
Suggest correction
comments
print report bad tab
7 comments total. Showing first comments.
0 reply
U B the band 3,023 Jul 07, 2006 06:34 AM

Good tab! 5 stars-PMT

0 reply
JimmyPage2247 10 Oct 25, 2006 07:07 AM

seems pretty solid, good job!
kutless rocks!

0 reply
bopeeper 10 Dec 29, 2006 10:18 AM

Great tab!Good insructions too! thnx!

guest
You may want to rate the tab now too:
select rating
Wanna post a correction for this tab? Suggest correction