Oops, an error
Loading. Please wait.

Lamparones tab

65 views 1 this week
no commentswrite comment
1 2 3 4 5
3 more votes to show rating
add to favorites
×
Save as Personal and add changes to this tab that will be seen only by you. Learn more ›
×
You can save this tab as Personal to edit and correct it or add notes. All changes will be seen only by you. Learn more »
launch autoscroll
font size
0
reset
how to read this tab
guitar tuner
edit
Autoscroll
slow
fast
+/-
esc
set tempo
stop
LAMPARONES  by Anderbitz

LaM-La7 (x4)
LaM-Solm (x2)
----5-----5----5---5-----5-----5---3-----3----3----3-----3----3----------
------2-----2--------2-----2---------2----2----------2----2--------------
--------2-----2--------2-----2---------2----2----------2----2------------
-------------------------------------------------------------------------
--0--------------0---------------0---------------0-----------------------
-------------------------------------------------------------------------

Durante punteo LA                     LA#   (final verso)           x2
-----------------------------5---6-5-------------------------------------
---------------------5-5-6-8---8-----8-7-8-8-7-5-------------------------
-----------------6-7-----------------------------------------------------
-----7-8-7-5-7-8---------------------------------------------------------
---7---------------------------------------------------------------------
-------------------------------------------------------------------------

-----------------------------5---6-5-------------------------------------
---------------------5-5678---8-----8-7----5-----------------------------
-----------------6-7-----------------------------------------------------
-----7-8-7-5-7-8---------------------------------------------------------
---7---------------------------------------------------------------------
-------------------------------------------------------------------------

LA -SOLm-LA# -LA       LA# -LA 
---5-----6-----5----------------3-----5-----3----------------------------
-----5-----5------6-5--5-6-------3-----3-------3-3-2-3-5-----------------
-------6-----6-------7------------3-----3--------------------------------
-------------------------------------------------------------------------
-------------------------------------------------------------------------

-------------------------------------------------------------------------
---1-----3-----1-----------------------1--0------------------------------
-----3-----3-----3-3-2-3-5--2----------3--2------------------------------
-------3-----3----------------2--------3--2------------------------------
---------------------------------------3--2------------------------------
---------------------------------------1--0------------------------------
---------------------------------------x--0------------------------------

LaM-Solm-MiM-La#M-LaM
---5-----6-----5----------------3-----5-----3--3-------------------------
-----5-----5------6-5--5-6-------3-----3---------6-5-5-3-----------------
-------6-----6-------7------------3-----3----------------5-5-3-2---------
-------------------------------------------------------------------------
-------------------------------------------------------------------------
-------------------------------------------------------------------------


LA# -LA              LA# -SOLm            MI    LA#    LA 
Sobra cuadra para tan poco corcel; falta fragua y frenesí.

LA# -LA              LA# -SOLm            MI    LA#    LA 
Y agujeros que taladren el papel, donde he escrito para ti,

REm                         LAm
más mentiras que pestañas,

MI                  MIM/SOL#       LAm
que botellas, que doncellas desvirgadas,

LA7                          REm                   LAm   FaMm MI  -LAm
que las mellas del carril que cuentan noches varadas?

-------------------------------------------------------------------------
-------------------------------------------------------------------------
-------------------------------------------------------------------------
-------------------------------------------------------------------------
---4-5--4-5-4----------4-5---4-5-4-------------3-------------------------
--6----6------6-5-3--6-----6-------6-5-3-5-6-6---------------------------

-------------------------------------------------------------------------
-------------------------------------------------------------------------
-------------------------------------------------------------------------
-------------------------------------------------------------------------
---4-5--4-5-4----------4-5---4-5-4------------3---------3----------------
--6----6------6-5-3--6-----6-------6-5-3--4-4---6-5--4-4--6-5------------

-------------------------------------------------------------------------
-------------------------------------------------------------------------
-------------------------------------------------------------------------
----4-3-4-3---4----------------------------------------------------------
--5---------6---6-5-6-5--3-5-3-------------------------------------------
--------------------------------5----------------------------------------

LA# -LA              LA#-M-SOLm            MI    LA#    LA 
Sobran días desdentados de reír;  falta ver quien me somete.

LA# -LA              LA# -SOLm            MI    LA#    LA 
Y pespunte que sujete cada Abril,   resabiado al mal decir

REm                         LAm
más veces que las goteras,

MI                  MIM/SOL#       LAm                     LA7
de la criba ,    de saliva,      de las almas más rastreras

LA#                  LAm
Sobrarán la vez primera.

--1--0-------------------------------------------------------------------
--3--2-------------------------------------------------------------------
--3--2-------------------------------------------------------------------
--3--2--------2-3-5------------------------------------------------------
--1--0----4-5------------------------------------------------------------
--x--0-------------------------------------------------------------------

REm                            SOLm
Herraduras que a las duras siempre están,

REm            SOLm
tapando los lamparones.

LA#                            LA 
Que gritan a los caminos,no son putas, son molinos

LA#                            LA 
que sólo aire quieren dar?.

REm                            SOLm
Y con mordiscos en las ubres caminar,

REm                            SOLm
la senda que más denigre.

LA#                        LA 
Que amamantando a los tigres, seguiremos siendo libres.

LA#                        LA 
Cómo rejas de un panal.

(Durante el punteo)
RE#      SOLm                       DO     LA#      LA 
---------------------------------6-5-3-----------------------------------
--4-3-4---3-4-6-4-3---------3-5-6------6-5--3-3-2------------------------
--------5-----------5-3---3-----------------------3-2------2-3-2---------
-------------------------------------------------------------------------
-------------------------------------------------------------------------
-------------------------------------------------------------------------

RE#      SOLm                       DO     LA#      LA 
---------------------------------6-5-3-----------------------------------
--4-3-4---3-4-6-4-3---------3-5-6------6-5--3-3-2------------------------
--------5-----------5-3---3-----------------------3-2--------------------
-------------------------------------------------------------------------
-------------------------------------------------------------------------
-------------------------------------------------------------------------
SOLO
-------------------------------------------------------------------------
-------------------------------------------3-----------------------------
-----------------2-3-2--2--------2---2-3-5-------------------------------
-----------2-3-5-------5--5-3--5---5-------------------------------------
-------4-5---------------------------------------------------------------
-6-5-6-------------------------------------------------------------------

REm      DO        LA# 
REm      DO        LA# 

MIm      REm       DO 
MIm      REm       DO 

REm      DO        LA# 
REm      DO        LA# 

DO#  DO   x8

Prechorus
-------------------------------------------------------------------------
-------------------------------------------------------------------------
-------------------------------------------------------------------------
-------------------------------------------------------------------------
---6-5-------------------------------------------------------------------
-------8-7-6-5-----------------------------------------------------------

REm                            SOLm
Herraduras que a las duras siempre están,

REm            SOLm
tapando los lamparones.

LA#                            LA 
Que gritan a los caminos,no son putas, son molinos

LA#                            LA 
que sólo aire quieren dar?.

REm                            SOLm
Y con mordiscos en las ubres caminar,

REm                            SOLm
la senda que más denigre.

LA#                            LA 
Que amamantando a los tigres, seguiremos siendo libres.

LA#                           LA 
Cómo rejas de un panal.

LA# -LA       x5
-------------------------------------------------------------------------
-------------------------------------------------------------------------
-------------------------------------------------------------------------
-------------------------------------------------------------------------
---6-5-------------------------------------------------------------------
-------8-7-6-5-----------------------------------------------------------

Para mi enana de Sevilla.
Disfrutadla ;)

            
            
Suggest correction
Creating personal tab
Creating personal tab
You can edit any tab online and save it as your Personal.

You can edit, replace or remove any tab part or add personal notes – all changes will be seen only by you.

Personal tabs can be accessed anytime from any device, even offline.
Learn more »
Give kudos to tab author, rate the tab!
1 2 3 4 5
comments
print report bad tab
guest
Wanna post a correction for this tab? Suggest correction