Oops, an error
Loading. Please wait.

1985 tab

version 1
version 1

Whole song

1,717 views 51 this week
2 commentsread comments
1 2 3 4 5
x 3
add to favorites
×
Save as Personal and add changes to this tab that will be seen only by you. Learn more ›
×
You can save this tab as Personal to edit and correct it or add notes. All changes will be seen only by you. Learn more »
launch autoscroll
font size
0
reset
how to read this tab
guitar tuner
edit
Autoscroll
slow
fast
+/-
esc
set tempo
stop
Author
--------------------------------------------------------------------------------------------------------------
1985 - Kvelertak
--------------------------------------------------------------------------------------------------------------
Tabbed by: Lagreid
Email: sturla.lagreid@gmail.com

Tuning: Standard (EADGBe)



[Intro]
(Guitar 1)
e|---------|--------------------------------|
B|---------|--------------------------------|
G|---------|--------------------------------|
D|---5-4-3-|-2------------------------------|
A|---5-4-3-|-2------------------------------|
E|---3-2-1-|-0--0-0-0-0-0-0-0-0-0-0-0-0-0-0-|

(Guitar 1)
e|-------------------------------0-|(0)-----------------------------0-|(0)-------------0-------0-------0-|
B|-------------------------------0-|(0)-----------------------------0-|(0)-------------0-------0-------0-|
G|-------------------------------6-|(6)-----------------------------6-|(6)-------------6-------8-------6-|
D|-------------------------------7-|(7)-----------------------------7-|(7)-------------7-------9-------7-|
A|-------------------------------7-|(7)-----------------------------7-|(7)-------------7-------9-------7-|
E|-0-0-0-0-0-0-0-0-0-0-0-0-0-0-0-0-|(0)-0-0-0-0-0-0-0-0-0-0-0-0-0-0-0-|(0)-0-0-0-0-0-0-0-0-0-0-0-0-0-0-0-|


(Guitar 1)
e|(0)-----------------------------0-|(0)-----0-------0--------------------------|
B|(0)-----------------------------0-|(0)-----0-------0--------------------------|
G|(6)-----------------------------6-|(6)-----8-------1--------------------------|
D|(7)-----------------------------7-|(7)-----9-------2------------9-----------7-|
A|(7)-----------------------------7-|(7)-----9-------2-------9h11---9h11p9\7----|
E|(0)-0-0-0-0-0-0-0-0-0-0-0-0-0-0-0-|(0)-0-0-0-0-0-0-0-0-0-0--------------------|

(Guitar 2)
e|--------------------------------0-|(0)-----0-------0------------------------0-|
B|--------------------------------0-|(0)-----0-------0------------------------0-|
G|--------------------------------6-|(6)-----8-------1------------------------6-|
D|--------------------------------7-|(7)-----9-------2------------------------7-|
A|--------------------------------7-|(7)-----9-------2------------------------7-|
E|--0-0-0-0-0-0-0-0-0-0-0-0-0-0-0-0-|(0)-0-0-0-0-0-0-0-0-0-0------------------0-|


(Guitar 1 & 2)
e|(0)-----------------------------0-|(0)-------------0-------0-------0-|
B|(0)-----------------------------0-|(0)-------------0-------0-------0-|
G|(6)-----------------------------6-|(6)-------------6-------8-------6-|
D|(7)-----------------------------7-|(7)-------------7-------9-------7-|
A|(7)-----------------------------7-|(7)-------------7-------9-------7-|
E|(0)-0-0-0-0-0-0-0-0-0-0-0-0-0-0-0-|(0)-0-0-0-0-0-0-0-0-0-0-0-0-0-0-0-|


(Guitar 1)
e|(0)-----------------------------0-|(0)-----0-------0--------------------------|
B|(0)-----------------------------0-|(0)-----0-------0--------------------------|
G|(6)-----------------------------6-|(6)-----8-------1------------9-------------|
D|(7)-----------------------------7-|(7)-----9-------2-------9h11---9h11p9----7-|
A|(7)-----------------------------7-|(7)-----9-------2---------------------11---|
E|(0)-0-0-0-0-0-0-0-0-0-0-0-0-0-0-0-|(0)-0-0-0-0-0-0-0-0-0-0--------------------|

(Guitar 2)
e|(0)-----------------------------0-|(0)-----0-------0--------------------------|
B|(0)-----------------------------0-|(0)-----0-------0------------9-------------|
G|(6)-----------------------------6-|(6)-----8-------1-------9h11---9h11p9----9-|
D|(7)-----------------------------7-|(7)-----9-------2---------------------11---|
A|(7)-----------------------------7-|(7)-----9-------2--------------------------|
E|(0)-0-0-0-0-0-0-0-0-0-0-0-0-0-0-0-|(0)-0-0-0-0-0-0-0-0-0-0--------------------|




[Verse]
(Guitar 1 & 2) (Vocals kicks in)
e|(0)-----------------------------0-|(0)-------------0-------0-------0-|
B|(0)-----------------------------0-|(0)-------------0-------0-------0-|
G|(6)-----------------------------6-|(6)-------------6-------8-------6-|
D|(7)-----------------------------7-|(7)-------------7-------9-------7-|
A|(7)-----------------------------7-|(7)-------------7-------9-------7-|
E|(0)-0-0-0-0-0-0-0-0-0-0-0-0-0-0-0-|(0)-0-0-0-0-0-0-0-0-0-0-0-0-0-0-0-|


(Guitar 1)
e|(0)-----------------------------0-|(0)-----0-------0--------------------------|
B|(0)-----------------------------0-|(0)-----0-------0--------------------------|
G|(6)-----------------------------6-|(6)-----8-------1------------9-------------|
D|(7)-----------------------------7-|(7)-----9-------2-------9h11---9h11p9----7-|
A|(7)-----------------------------7-|(7)-----9-------2---------------------11---|
E|(0)-0-0-0-0-0-0-0-0-0-0-0-0-0-0-0-|(0)-0-0-0-0-0-0-0-0-0-0--------------------|

(Guitar 2)
e|(0)-----------------------------0-|(0)-----0-------0--------------------------|
B|(0)-----------------------------0-|(0)-----0-------0------------9-------------|
G|(6)-----------------------------6-|(6)-----8-------1-------9h11---9h11p9----9-|
D|(7)-----------------------------7-|(7)-----9-------2---------------------11---|
A|(7)-----------------------------7-|(7)-----9-------2--------------------------|
E|(0)-0-0-0-0-0-0-0-0-0-0-0-0-0-0-0-|(0)-0-0-0-0-0-0-0-0-0-0--------------------|


(Guitar 1 & 2)
e|-------------------------------0-|(0)-------------0-------0-------0-|
B|-------------------------------0-|(0)-------------0-------0-------0-|
G|-------------------------------6-|(6)-------------6-------8-------6-|
D|-------------------------------7-|(7)-------------7-------9-------7-|
A|-------------------------------7-|(7)-------------7-------9-------7-|
E|-0-0-0-0-0-0-0-0-0-0-0-0-0-0-0-0-|(0)-0-0-0-0-0-0-0-0-0-0-0-0-0-0-0-|

(Guitar 1 & 2)
e|(0)-----------------------------0-|(0)-----0-------0---------------------|
B|(0)-----------------------------0-|(0)-----0-------0-----------4/6---4---|
G|(6)-----------------------------6-|(6)-----8-------1-----------4/6---4---|
D|(7)-----------------------------7-|(7)-----9-------2-----------4/6---4---|
A|(7)-----------------------------7-|(7)-----9-------2-----------2/4---2---|
E|(0)-0-0-0-0-0-0-0-0-0-0-0-0-0-0-0-|(0)-0-0-0-0-0-0-0-0-0-0-0-------------|




[Chorus]
(Guitar 1)
e|--------------------------------|-----------------------------|
B|-2----4---5p4--5--4--2----------|------4---5p4--5--4--4--2----|
G|-2----4---4----4--4--2--------2-|(2)---4---4----4--4--4--2--1-|
D|-2----4---6p4--6--4--2--------2-|(2)---4---6p4--6--4--4--2--2-|
A|-0--0-0---0----0--0--0-----0--0-|(0)-0-0---0----0--0--0--0--2-|
E|--------------------------------|---------------------------0-|

(Guitar 2)
e|--------------------------------|-----------------------------|
B|-2------------------------------|-----------------------------|
G|-2----------------------------2-|(2)---------------2--2--2--1-|
D|-2--2-2-2-2-2-2-2-2-2-2-2-2-2-2-|(2)-2-2-2-2-2-2-2-2--2--2--2-|
A|-0--0-0-0-0-0-0-0-0-0-0-0-0-0-0-|(0)-0-0-0-0-0-0-0-0--0--0--2-|
E|--------------------------------|---------------------------0-|


(Guitar 1)
e|----------------------------------|-----------------------------------|
B|-----------------------0--------0-|(0)--------------------------------|
G|(1)----------------1/2---2\1----1-|(1)--------------------------------|
D|(2)--------------------------2--2-|(2)---------------------------2--9-|
A|(2)-----------------------------2-|(2)---------------------2-2-4----9-|
E|(0)-0-0-0-0-0-0-0-0-------------0-|(0)-0-0-0-0-0-0-0-0-2-4----------7-|

(Guitar 2)
e|----------------------------------|-----------------------------------|
B|--------------------------------0-|(0)--------------------------------|
G|(1)-----------------------------1-|(1)--------------------------------|
D|(2)-----------------------------2-|(2)---------------------------2--9-|
A|(2)-----------------------------2-|(2)---------------------2-2-4----9-|
E|(0)-0-0-0-0-0-0-0-0-0-0-0-0-0-0-0-|(0)-0-0-0-0-0-0-0-0-2-4----------7-|


(Guitar 1 & 2)
e|----------------------------------------------------|
B|----------------------------------------------------|
G|----------------------------------------------------|
D|(9)---9--11-9--9--9--11--9--9--9--11--9--9--8--7--5-|
A|(9)---9--11-9--9--9--11--9--9--9--11--9--9--8--7--5-|
E|(7)---7--7--7--7--7--7---7--7--7--7---7--7--6--5--3-|

(Guitar 1)
e|---------------------------------------------|----------------------------------|
B|---------------------------------------------|----------------------------------|
G|-----------------------------7---------------|--------------------------------4-|
D|(5)--5--5--5-----------------7----9--------2-|(2)-------------------------------|
A|(5)--5--5--5-------5-7--7/9-------10---------|----------------------------------|
E|(3)--3--3--3---5/7--------------------3b-----|----0-0-0-0-0-0-0-0-0-0-0-0-0-0---|

(Guitar 2)
e|---------------------------------------------|-----------------------------------|
B|---------------------------------------------|-----------------------------------|
G|-----------------------------7----0----------|--------------------------------4--|
D|(5)--5--5--5-----------------7----0--------2-|(2)-----------------------------2--|
A|(5)--5--5--5-------5-7--7/9----------------2-|(2)-----------------------------2--|
E|(3)--3--3--3---5/7--------------------3b---0-|(0)-0-0-0-0-0-0-0-0-0-0-0-0-0-0-0--|

(Guitar 1)
e|----------5---------7----0--|(0)---------------------------------------|
B|-------5---------7------12--|(12)-------------------9------------------|
G|(4)/6--------8--------11b13-|(13)--------------9h11---9h11p9-----------|
D|----------------------------|---------------------------------9-----11-|
A|----------------------------|------------------------------------------|
E|----------------------------|------------------------------------------|

(Guitar 2)
e|-----0--0--0---0--0--0---0--|(0)---------------------------------------|
B|-----0--0--0---0--0--0---0--|(0)---------------------------------------|
G|(4)--4--4--4---6--6--6---12-|(12)-------------------9------------------|
D|(2)--5--5--5---7--7--7---13-|(12)--------------9h11---9h11p9--------9--|
A|(2)--5--5--5---7--7--7---13-|(13)-----------------------------11-------|
E|(0)--0--0--0---0--0--0---0--|(0)---------------------------------------|




[Verse]
(Guitar 1 & 2)
e|(0)-----------------------------0-|(0)-------------0-------0-------0-|
B|(0)-----------------------------0-|(0)-------------0-------0-------0-|
G|(6)-----------------------------6-|(6)-------------6-------8-------6-|
D|(7)-----------------------------7-|(7)-------------7-------9-------7-|
A|(7)-----------------------------7-|(7)-------------7-------9-------7-|
E|(0)-0-0-0-0-0-0-0-0-0-0-0-0-0-0-0-|(0)-0-0-0-0-0-0-0-0-0-0-0-0-0-0-0-|


(Guitar 1)
e|(0)-----------------------------0-|(0)-----0-------0--------------------------|
B|(0)-----------------------------0-|(0)-----0-------0--------------------------|
G|(6)-----------------------------6-|(6)-----8-------1------------9-------------|
D|(7)-----------------------------7-|(7)-----9-------2-------9h11---9h11p9----7-|
A|(7)-----------------------------7-|(7)-----9-------2---------------------11---|
E|(0)-0-0-0-0-0-0-0-0-0-0-0-0-0-0-0-|(0)-0-0-0-0-0-0-0-0-0-0--------------------|

(Guitar 2)
e|(0)-----------------------------0-|(0)-----0-------0--------------------------|
B|(0)-----------------------------0-|(0)-----0-------0------------9-------------|
G|(6)-----------------------------6-|(6)-----8-------1-------9h11---9h11p9------|
D|(7)-----------------------------7-|(7)-----9-------2---------------------9-11-|
A|(7)-----------------------------7-|(7)-----9-------2--------------------------|
E|(0)-0-0-0-0-0-0-0-0-0-0-0-0-0-0-0-|(0)-0-0-0-0-0-0-0-0-0-0--------------------|


(Vocals)
(Guitar 1 & 2)
e|-------------------------------0-|(0)-------------0-------0-------0-|
B|-------------------------------0-|(0)-------------0-------0-------0-|
G|-------------------------------6-|(6)-------------6-------8-------6-|
D|-------------------------------7-|(7)-------------7-------9-------7-|
A|-------------------------------7-|(7)-------------7-------9-------7-|
E|-0-0-0-0-0-0-0-0-0-0-0-0-0-0-0-0-|(0)-0-0-0-0-0-0-0-0-0-0-0-0-0-0-0-|


(Guitar 1)
e|(0)-----------------------------0-|(0)-----0-------0--------------------------|
B|(0)-----------------------------0-|(0)-----0-------0--------------------------|
G|(6)-----------------------------6-|(6)-----8-------1--------------------------|
D|(7)-----------------------------7-|(7)-----9-------2------------9-----------7-|
A|(7)-----------------------------7-|(7)-----9-------2-------9h11---9h11p9\7----|
E|(0)-0-0-0-0-0-0-0-0-0-0-0-0-0-0-0-|(0)-0-0-0-0-0-0-0-0-0-0--------------------|

(Guitar 2)
e|(0)-----------------------------0-|(0)-----0-------0--------------------------|
B|(0)-----------------------------0-|(0)-----0-------0------------9-------------|
G|(6)-----------------------------6-|(6)-----8-------1-------9h11---9h11p9----9-|
D|(7)-----------------------------7-|(7)-----9-------2---------------------11---|
A|(7)-----------------------------7-|(7)-----9-------2--------------------------|
E|(0)-0-0-0-0-0-0-0-0-0-0-0-0-0-0-0-|(0)-0-0-0-0-0-0-0-0-0-0--------------------|


(Guitar 1 & 2)
e|-------------------------------0-|(0)-------------0-------0-------0-|
B|-------------------------------0-|(0)-------------0-------0-------0-|
G|-------------------------------6-|(6)-------------6-------8-------6-|
D|-------------------------------7-|(7)-------------7-------9-------7-|
A|-------------------------------7-|(7)-------------7-------9-------7-|
E|-0-0-0-0-0-0-0-0-0-0-0-0-0-0-0-0-|(0)-0-0-0-0-0-0-0-0-0-0-0-0-0-0-0-|

(Guitar 1 & 2)
e|(0)-----------------------------0-|(0)-----0-------0---------------------|
B|(0)-----------------------------0-|(0)-----0-------0-----------4/6---4---|
G|(6)-----------------------------6-|(6)-----8-------1-----------4/6---4---|
D|(7)-----------------------------7-|(7)-----9-------2-----------4/6---4---|
A|(7)-----------------------------7-|(7)-----9-------2-----------2/4---2---|
E|(0)-0-0-0-0-0-0-0-0-0-0-0-0-0-0-0-|(0)-0-0-0-0-0-0-0-0-0-0-0-------------|




[Chorus]
(Guitar 1)
e|--------------------------------|-----------------------------|
B|-2----4---5p4--5--4--2----------|------4---5p4--5--4--4--2----|
G|-2----4---4----4--4--2--------2-|(2)---4---4----4--4--4--2--1-|
D|-2----4---6p4--6--4--2--------2-|(2)---4---6p4--6--4--4--2--2-|
A|-0--0-0---0----0--0--0-----0--0-|(0)-0-0---0----0--0--0--0--2-|
E|--------------------------------|---------------------------0-|

(Guitar 2)
e|--------------------------------|-----------------------------|
B|-2------------------------------|-----------------------------|
G|-2----------------------------2-|(2)---------------2--2--2--1-|
D|-2--2-2-2-2-2-2-2-2-2-2-2-2-2-2-|(2)-2-2-2-2-2-2-2-2--2--2--2-|
A|-0--0-0-0-0-0-0-0-0-0-0-0-0-0-0-|(0)-0-0-0-0-0-0-0-0--0--0--2-|
E|--------------------------------|---------------------------0-|


(Guitar 1)
e|----------------------------------|----------------------------------|
B|-----------------------0----------|-0--------------------------------|
G|(1)----------------1/2---2\1------|-1--------------------------------|
D|(2)--------------------------2----|-2---------------------------2--9-|
A|(2)----------------------------2--|-2---------------------2-2-4----9-|
E|(0)-0-0-0-0-0-0-0-0---------------|-0-0-0-0-0-0-0-0-0-2-4----------7-|

(Guitar 2)
e|----------------------------------|----------------------------------|
B|------------------------5---------|-0--------------------------------|
G|(1)-----------------4/6---6\4p2\1-|-1--------------------------------|
D|(2)-------------------------------|-2---------------------------2--9-|
A|(2)-------------------------------|-2---------------------2-2-4----9-|
E|(0)-0-0-0-0-0-0-0-0---------------|-0-0-0-0-0-0-0-0-0-2-4----------7-|


(Guitar 1 & 2)
e|----------------------------------------------------|
B|----------------------------------------------------|
G|----------------------------------------------------|
D|(9)---9--11-9--9--9--11--9--9--9--11--9--9--8--7--5-|
A|(9)---9--11-9--9--9--11--9--9--9--11--9--9--8--7--5-|
E|(7)---7--7--7--7--7--7---7--7--7--7---7--7--6--5--3-|

(Guitar 1)
e|---------------------------------------------|----------------------------------|
B|---------------------------------------------|----------------------------------|
G|-----------------------------7---------------|--------------------------------4-|
D|(5)--5--5--5-----------------7----9--------2-|(2)-------------------------------|
A|(5)--5--5--5-------5-7--7/9-------10---------|----------------------------------|
E|(3)--3--3--3---5/7--------------------3b-----|----0-0-0-0-0-0-0-0-0-0-0-0-0-0---|

(Guitar 2)
e|---------------------------------------------|-----------------------------------|
B|---------------------------------------------|-----------------------------------|
G|-----------------------------7----0----------|--------------------------------4--|
D|(5)--5--5--5-----------------7----0--------2-|(2)-----------------------------2--|
A|(5)--5--5--5-------5-7--7/9----------------2-|(2)-----------------------------2--|
E|(3)--3--3--3---5/7--------------------3b---0-|(0)-0-0-0-0-0-0-0-0-0-0-0-0-0-0-0--|


(Guitar 1)
e|----------5---------7----0--|(0)---------------------------------------|
B|-------5---------7------12--|(12)--------------------------------------|
G|(4)/6--------8--------11b13-|(13)---------------------1----------------|
D|----------------------------|--------------------2h4-----2h4p2-----2---|
A|----------------------------|----------------------------------4-------|
E|----------------------------|------------------------------------------|

(Guitar 2)
e|-----0--0--0---0--0--0---0--|(0)---------------------------------------|
B|-----0--0--0---0--0--0---0--|(0)---------------------------------------|
G|(4)--4--4--4---6--6--6---12-|(12)--------------------------------------|
D|(2)--5--5--5---7--7--7---13-|(12)----------------------2---------------|
A|(2)--5--5--5---7--7--7---13-|(13)-----------------2h4-----2h4p2--------|
E|(0)--0--0--0---0--0--0---0--|(0)--------------------------------4--5---|


[Bridge]
(Guitar 1)
e|---------------------------------------------------------------|
B|---------------------------------------------------------------|
G|-----------------------------1---------------------------------|
D|(2)---------------------2h4-----2h4p2----2------4-------6------|
A|--------------------------------------4------------------------|
E|----0-0-0-0-0-0-0-0-0-0--------------------0-0-----0-0---------|

(Guitar 2)
e|---------------------------------------------------------------|
B|---------------------------------------------------------------|
G|---------------------------------------------------------------|
D|-----------------------------2---------------------------2-----|
A|------------------------2h4-----2h4p2------------2-------------|
E|(5)-0-0-0-0-0-0-0-0-0-0---------------4--5--0-0-----0-0--------|





[Solo]

e|----------------------------------|---------------------------7----------|---------------------------------|
B|-12---12p9---12--12/14------------|--12----12p9---12-----9/10---10\9-----|---------------------------------|
G|------------------------9--------9|----------------------------------9---|--------9-------------9----------|
D|--------------------------9-9h11--|------------------------------------9-|(9)\7\6----------9/11---11\9p7\6-|
A|----------------------------------|--------------------------------------|---------------------------------|
E|----------------------------------|--------------------------------------|---------------------------------|
                 + (pinch harmonic)
e|------------------------------|---------------------------------|---------------------------------|
B|--------------------------4---|---4----4--4-5-6-7---------------|---------------------------------|
G|---------------6----------6b8-|---6b8--6b8--------6b8-6-4-----7-|(7)h9--7--------7h9--------------|
D|------6-----------------------|---------------------------------|----------7--5---------7-----5---|
A|--9b--------------------------|---------------------------------|--------------------10----x------|
E|------------------------------|---------------------------------|---------------------------------|

e|------------------------------|------------------------------------|
B|------------------------------|--------5--------7----12------------|
G|------------------------------|------6--------8------13------------|
D|(5)b6-----------------------6-|(6)/7------9----------14------------|
A|------------------------------|------------------------------------|
E|------------------------------|------------------------------------|


| b  bend
| /  slide up
| \  slide down
| h  hammer-on
| p  pull-off
| ~  vibrato
| +  harmonic
| x  mute note
Suggest correction
Creating personal tab
Creating personal tab
You can edit any tab online and save it as your Personal.

You can edit, replace or remove any tab part or add personal notes – all changes will be seen only by you.

Personal tabs can be accessed anytime from any device, even offline.
Learn more »
Give kudos to tab author, rate the tab!
1 2 3 4 5
comments
print report bad tab
2 comments total.
0 reply
chrismikael17 10 Jan 27, 2017 07:27 PM

Which tempo does this song go in? Trying to make a tab for Guitar Pro etc.

0 reply
Largeid 30 Feb 13, 2017 07:22 AM, edited at 12:23 pm

I think it goes in 132 bpm :)

guest
You may want to rate the tab now too:
select rating
Wanna post a correction for this tab? Suggest correction