Oops, an error
Loading. Please wait.

Apenbaring tab

version 1
version 1

Whole song

2,066 views 39 this week
no commentswrite comment
1 2 3 4 5
x 3
add to favorites
×
Save as Personal and add changes to this tab that will be seen only by you. Learn more ›
×
You can save this tab as Personal to edit and correct it or add notes. All changes will be seen only by you. Learn more »
launch autoscroll
font size
0
reset
how to read this tab
guitar tuner
edit
Autoscroll
slow
fast
+/-
esc
set tempo
stop
Apenbaring - Kvelertak

6th String tuned down a full step

Intro

E|---------------------------------|
B|---------------------------------|
G|-0-12-0-10-8-7---0-7-0-8/10-8-7--|
D|---------------------------------|
A|---------------------------------|
D|---------------------------------|

E|------------------------------------|
B|------------------------------------|
G|-0-7-0-5/7-0-3/5-3---0-3-5/7-3/5-3--|
D|------------------------------------|
A|------------------------------------|
D|------------------------------------|

Play this in the background at 0:44

E|---|
B|-8-|
G|-7-|
D|-5-|
A|---|
D|---|

That Middle Bit (I don't know the actual amount of strums in this bit,
just take a listen yourself)

E|-----------------|
B|-----------------|x2 then the next bit below
G|-----------------|
D|-----------------|
A|-1--1--8----8--8-|
D|-1--1--8----8--8-|

E|-------------------|
B|-------------------|x2
G|-------------------|
D|-------------------|
A|-10--10--5----5--5-|
D|-10--10--5----5--5-|                __
                                        |
Repeat these two until the tremolo bit  |
________________________________________|

Tremolo bit

E|-------------------------------------------|
B|-------------------------------------------|
G|-15---14---12----------------------/12--10-|
D|----------------15---12--------------------|
A|--------------------------15---13----------|
D|-------------------------------------------|
   ¬¬¬¬¬¬¬¬¬¬¬¬¬¬¬¬¬¬¬¬¬¬¬¬¬¬¬¬¬¬¬¬¬¬
E|-------------------------------------------|
B|-----------------------------------/15--13-|
G|-15---14---12--------12--------------------|
D|-----------------15------------------------|
A|-------------------------------------------|
D|-------------------------------------------|
   ¬¬¬¬¬¬¬¬¬¬¬¬¬¬¬¬¬¬¬¬¬¬¬¬¬¬¬¬¬¬¬¬¬¬

The Outro

E|-------------------------|--------------------------------|
B|-------------------------|--------------------------------|
G|-5/7-7/10--12---14---15--|-14/12-10/12--12---14---15^-15~-|
D|-------------------------|--------------------------------|
A|-------------------------|--------------------------------|
D|-------------------------|--------------------------------|


^ = Bend
~ = Vibrato
¬ = Tremolo (Pick fast)
/ = Slide

Hope this has been useful for you.
Tabbed by
          Ashley Gardner



            
            
Suggest correction
Creating personal tab
Creating personal tab
You can edit any tab online and save it as your Personal.

You can edit, replace or remove any tab part or add personal notes – all changes will be seen only by you.

Personal tabs can be accessed anytime from any device, even offline.
Learn more »
Give kudos to tab author, rate the tab!
1 2 3 4 5
comments
print report bad tab
guest
You may want to rate the tab now too:
select rating
Wanna post a correction for this tab? Suggest correction