Oops, an error
Loading. Please wait.

Fossegrim tab

version 2
version 2

Whole song

355 views 9 this week
no commentswrite comment
1 2 3 4 5
1 last vote to show rating
add to favorites
×
Save as Personal and add changes to this tab that will be seen only by you. Learn more ›
×
You can save this tab as Personal to edit and correct it or add notes. All changes will be seen only by you. Learn more »
launch autoscroll
font size
0
reset
how to read this tab
guitar tuner
edit
Autoscroll
slow
fast
+/-
esc
set tempo
stop
Author
[Intro]

00:00

Guitar 1

e|-----------------------------------------------|
B|-----------------------------------------------|
G|-----------------------------------------------|
D|-------7---------------------------------------|
A|--0----5----0-------------------------------0--|
D|--0---------0--0-0-0-0-0-0-0-0-0-0-0-0-0-0--0--|
                 * * * * * * * * * * * * * *  

[Verse]

00:12

Rhythm  guitar 1

e|----------------------------------------------------|
B|----------------------------------------------------|
G|----------------------------------------------------|
D|----7-----7--7s10--109--9s6--6s7------7-----7--7s10-|
A|-0--5--0--5--5s8---8s7--7s4--4s5---0--5--0--5--5s8--|
D|-0-----0---------------------------0-----0----------|

e|-----------|
B|-----------|
G|-----------|
D|-10--0--8--| x 2
A|-8---0--8--|
D|--------8--|

Rhythm  guitar 2 kicking in at 00:24

e|-----------|
B|-----------|
G|-----------|
D|--------10-|
A|--------8--|
D|--------8--|

00:25 Rhythm  guitar 1 + 2 plays "almost" the same,
except Rhythm  guitar 2 finish with the same
chord as at 00:24 the second time.

e||----------------------------------------------------|
B||----------------------------------------------------|
G||----------------------------------------------------|
D||----7-----7--7s10--109--9s6--6s7------7-----7--7s10-|
A||-0--5--0--5--5s8---8s7--7s4--4s5---0--5--0--5--5s8--|
D||-0-----0---------------------------0-----0----------|

e|-----------||
B|-----------||
G|-----------||
D|-10--0--8--|| x 3 
A|-8---0--8--||
D|--------8--||

00:44        

e|----------------------------------------------------|
B|----------------------------------------------------|
G|----------------------------------------------------|
D|----7-----7--7s10--109--9s6--6s7------7-----7--7s10-|
A|-0--5--0--5--5s8---8s7--7s4--4s5---0--5--0--5--5s8--|
D|-0-----0---------------------------0-----0----------|

e|------------------------------------------|
B|------------------------------------------|
G|------------------------------------------|
D|-10--0--10-10-10-10-10-10-10-10-10-10-10--|
A|-8---0--8--8--8--8--8--8--8--8--8--8--8---|
D|--------8--8--8--8--8--8--8--8--8--8--8---|


[Chorus]

00:51

e|---------------8----|
B|-10-10-10-8------10-|
G|------------10------|
D|--------------------|
A|--------------------|
D|--------------------|

00:52

e|----||---------------------------------------------|
B|----||---------------------------------------------|
G|----||--------------------------5------------------|
D|----||-----------------------5-----7--7------------|
A|--0-||------------------5h7--------5--5------------|
D|--0-||-0-0-0-0-0-0-0-0------------------0-0-0-0----|
         * * * * * * * *                  * * * *
e|---------------------------------------------------|
B|---------------------------------------------------|
G|-------------------5-------------------------------|
D|----------------5-----8--8-8--8-8-8--8-8s10--10----|
A|-----------5h7--------8--8-10-8-8-10-8-10s12-10----|
D|--0-0-0-0-------------8--8-8--8-8-8--8-8s10--10----|
    * * * *  

e|--------------|
B|--------------|
G|--------------|
D|--5--5--7--7--| x 2
A|--5--5--5--5--|
D|--5--5--------|

The last time it's even more rock'n'roll and the
low D string is played without palm mutes.

01:11

e|---------------------------------------------------|
B|---------------------------------------------------|
G|--------------------------5------------------------|
D|-----------------------5-----7--7------------------|
A|------------------5h7--------5--5------------------|
D|-0-0-0-0-0-0-0-0------------------0-0-0-0----------|
        
e|---------------------------------------------------|
B|---------------------------------------------------|
G|-------------------5-------------------------------|
D|----------------5-----8--8-8--8-8-8--8-8s10--10----|
A|-----------5h7--------8--8-10-8-8-10-8-10s12-10----|
D|--0-0-0-0-------------8--8-8--8-8-8--8-8s10--10----|

e|--------|
B|--------|
G|--------|
D|--5--5--|
A|--5--5--|
D|--5--5--|


[Break]

01:20 Used a special harmonizer on the record, so it's
difficult to get it 100%, but let's give it a
try anyway. Adding one guitar at a time.

Rhythm  guitar 1

e|----------------------------|
B|----------------------------|
G|----------------------------|
D|--7-----7-----7-----7-------|
A|--5--5--5--5--5--5--5--3h5--|
D|----------------------------|

01:24

e|----------------------------|
B|----------------------------|
G|----------------------------|
D|-----7-----7-----7----------| x 2
A|--5--5--5--5--5--5--5--3h5--|
D|----------------------------|

01:24

Rhythm  guitar 2

e|----------------------------|
B|----------------------------|
G|----------------------------|
D|----------------------------| x 2
A|-----8-----8-----8-----7h8--|
D|--0-----0-----0-----0-------|

01:27

Rhythm  guitar 3

e|----------------------------|
B|----------------------------|
G|----------------------------|
D|-----7-----7-----7-----5h7--|
A|----------------------------|
D|--0-----0-----0-----0-------|

01:30

Rhythm  guitar 1

e|----------------------------------|
B|----------------------------------|
G|----------------------------------|
D|-----7-----7----------------------|
A|--5--5--5--5-------3h5--3h5p3-----|
D|--------------5h7--------------5--|

Rhythm  guitar 2

e|----------------------------------|
B|----------------------------------|
G|----------------------------------|
D|----------------------------------|
A|-----8-----8----------------------|
D|--0-----0-------------------------|

Rhythm  guitar 3

e|----------------------------------|
B|----------------------------------|
G|----------------------------------|
D|-----7-----7----------------------|
A|----------------------------------|
D|--0-----0-------------------------|

Rhythm  guitar 4

e|----------------------------------|
B|-------------------6h8--6h8p6-----|
G|-----7-----7--5h7--------------5--|
D|----------------------------------|
A|----------------------------------|
D|--0-----0-------------------------|


[Verse]

01:33 

Rhythm  guitar 1

e|----------------------------------------------------|
B|----------------------------------------------------|
G|----------------------------------------------------|
D|----7-----7--7s10--109--9s6--6s7------7-----7--7s10-|
A|-0--5--0--5--5s8---8s7--7s4--4s5---0--5--0--5--5s8--|
D|-0-----0---------------------------0-----0----------|

e|-----------|
B|-----------|
G|-----------|
D|-10--0--8--| x 4
A|-8---0--8--|
D|--------8--|

01:46  

Rhythm  guitar 2 kicks in with a new harmony
variation of the riff.

e|--------------------------------------------|
B|--------------------------------------------|
G|-----10-----10--10s13--13s12--12s9----9s10--|
D|-----12-----12--12s15--15s14--14s11--11s12--|
A|--0------0----------------------------------|
D|--0------0----------------------------------|

e|---------------------------------|
B|---------------------------------|
G|-----10-----10--10s13--13--------|
D|-----12-----12--12s15--15-----8--|
A|--0------0-----------------0--8--|
D|--0------0-----------------0--8--|

e|--------------------------------------------|
B|--------------------------------------------|
G|-----10-----10--10s13--13s12--12s9----9s10--|
D|-----12-----12--12s15--15s14--14s11--11s12--|
A|--0------0----------------------------------|
D|--0------0----------------------------------|

e|------------------------------|
B|------------------------------|
G|-----10-----10--10s13--13-----|
D|-----12-----12--12s15--15-----|
A|--0------0-----------------0--|
D|--0------0-----------------0--|


[Buildup for guitar solo]
 
01:58

Rhythm  guitar 1

e||------------------|
B||------------------|
G||------------------|
D||------------------| x 4
A||-10-10-10--0-0-0--|
D||-10-10-10--0-0-0--|

02:00
  
Solo guitar

e|------------------------------------|
B|------------------------------------|
G|---------10--10--10-----------------|
D|---------10--10--10-----------------| 
A|--10h12--------------10h12p10s8h10--|
D|------------------------------------|

e|------------------------------------|
B|------------------------------------|
G|---------10--10--10-----------------|
D|---------10--10--10--12--12--10-----| 
A|--10h12-----------------------------|
D|------------------------------------|

e|--------------------------------------------------|
B|---------------------13---------------------------|
G|---------10--12--10------12b15bd12p10--12b15bd12--|
D|--10h12-------------------------------------------|
A|--------------------------------------------------|
D|--------------------------------------------------|

e|---------------------|
B|------------13-------|
G|--12b--12b------12b--|
D|--12b--12b------12b--|
A|---------------------|
D|---------------------|


[Solo]

02:11 

Rhythm  guitar 1

e|------------------------------------------|
B|------------------------------------------|
G|------------------------------------------|
D|------------------------------------------| x 2
A|--10--10--10--0--0--0---------------------|
D|--10--10--10--0--0--0--0-0-0-0-0-0-0-0-0--|
                         * * * * * * * * *

e|-----------------------------------------------|
B|-----------------------------------------------|
G|-----------------------------------------------|
D|--------------8--8-8--8-8-8--8-8s10--10--------|
A|--10--10--10--8--8-10-8-8-10-8-10s12-10--5--5--|
D|--10--10--10--8--8-8--8-8-8--8-8s10--10--5--5--|

Solo guitar

e|-----------------------------------------------|
B|-15--15--15-13-13--13-13-11--11s10--10s8--8s6--|
G|-----------------------------------------------|
D|-----------------------------------------------|
A|-----------------------------------------------|
D|-----------------------------------------------|


e|--------------------------------------|
B|--6s5--5s3--3s1---------------13--10--|
G|-----------------5s7--10--12----------|
D|--------------------------------------|
A|--------------------------------------|
D|--------------------------------------|


[Break]

02:21 

Rhythm  guitar 1

e|------------------------------------------------|
B|------------------------------------------------|
G|------------------------------------------------|
D|-----------------------------6-6-6-6--5-5-5-5---|
A|--5-5-5-5--8-8-8-8--7-7-7-7---------------------|
D|------------------------------------------------|

e|------------------------------------------------|
B|------------------------------------------------|
G|--------------------7-7-7-7--6-6-6-6------------|
D|--8-8-8-8--7-7-7-7--------------------6-6-6-6---|
A|------------------------------------------------|
D|------------------------------------------------|

e|------------------------------------------------|
B|------------------------------------------------|
G|------------------------------------------------|
D|--7-7-7-7------------5-5-5-5--------------------|
A|-----------8-8-8-8------------7-7-7-7--8-8-8-8--|
D|------------------------------------------------|

e|-----------|
B|-----------|
G|-----------|
D|-----------|
A|--4-4-4-4--|
D|-----------|

  
02:23

Rhythm  guitar 2 gives us some harmony.

e|-----------------------------------------------|
B|--6-6-6-6--5-5-5-5-----------------------------|
G|---------------------6-6-6-6--7-7-7-7----------|
D|--------------------------------------7-7-7-7--|
A|-----------------------------------------------|
D|-----------------------------------------------|

e|--------------------------------------|
B|--------------------------------------|
G|--------------------------------------|
D|--8-8-8-8--5-5-5-5--7-7-7-7-----------|
A|-----------------------------7-7-7-7--|
D|--------------------------------------|


[Build-up before next chorus]

02:27

Rhythm  guitars

e|-----------------------------------------------------|
B|-----------------------------------------------------|
G|-----------------------------------------------------|
D|--7-7-7-7-7-7-7-7--7-7-7-7-7-7-7-7--5-5-5-5-5-5-5-5--|
A|--5-5-5-5-5-5-5-5--4-4-4-4-4-4-4-4--3-3-3-3-3-3-3-3--|
D|-----------------------------------------------------|

e|-----------------------------------------------------|
B|-----------------------------------------------------|
G|-----------------------------------------------------|
D|--5-5-5-5-5-5-5-5--3-3-3-3-3-3-3-3--3-3-3-3-3-3-3-3--|
A|--2-2-2-2-2-2-2-2--1-1-1-1-1-1-1-1--0-0-0-0-0-0-0-0--|
D|-----------------------------------------------------| 

e|--------------------------------------------|
B|--------------------------------------------|
G|--------------------------------------------|
D|--5-5-5-5-5-5-5-5--12-12-12-12-12-12-12-12--| x 2
A|--3-3-3-3-3-3-3-3--10-10-10-10-10-10-10-10--|
D|--------------------------------------------|

02:40

Rhythm  guitar 1 continues with the same riff except
the Rhythm  is now "halved" from eight times to four
per chord. 

e|-----------------------------------------------|
B|-----------------------------------------------|
G|-----------------------------------------------|
D|--7-7-7-7--7-7-7-7--5-5-5-5--5-5-5-5--3-3-3-3--|
A|--5-5-5-5--4-4-4-4--3-3-3-3--2-2-2-2--1-1-1-1--|
D|-----------------------------------------------|

e|-----------------------------------------------|
B|-----------------------------------------------|
G|-----------------------------------------------|
D|--3-3-3-3--5-5-5-5--12-12-12-12----------------|
A|--0-0-0-0--3-3-3-3--10-10-10-10----------------|
D|-----------------------------------------------|

e|-----------------------------------------------|
B|-----------------------------------------------|
G|-----------------------------------------------|
D|--7-7-7-7--7-7-7-7--5-5-5-5--5-5-5-5--3-3-3-3--|
A|--5-5-5-5--4-4-4-4--3-3-3-3--2-2-2-2--1-1-1-1--|
D|-----------------------------------------------|

e|------------------|
B|------------------|
G|------------------|
D|--3-3-3-3--5-5-5--|
A|--0-0-0-0--3-3-3--|
D|------------------|


[Chorus]

02:51

Guitar 1

e|--------------------------|
B|--10-10-10--8------8--10--|
G|---------------10---------|
D|--------------------------|
A|--------------------------|
D|--------------------------|

Guitar 2

e|--10-10-10--8------8--10--|
B|---------------10---------|
G|--------------------------|
D|--------------------------|
A|--------------------------|
D|--------------------------|

02:52

e|----||---------------------------------------------|
B|----||---------------------------------------------|
G|----||--------------------------5------------------|
D|----||-----------------------5-----7--7------------|
A|--0-||------------------5h7--------5--5------------|
D|--0-||-0-0-0-0-0-0-0-0------------------0-0-0-0----|
         * * * * * * * *                  * * * *
e|---------------------------------------------------|
B|---------------------------------------------------|
G|-------------------5-------------------------------|
D|----------------5-----8--8-8--8-8-8--8-8s10--10----|
A|-----------5h7--------8--8-10-8-8-10-8-10s12-10----|
D|--0-0-0-0-------------8--8-8--8-8-8--8-8s10--10----|
    * * * *  

e|--------------|
B|--------------|
G|--------------|
D|--5--5--7--7--| x 2
A|--5--5--5--5--|
D|--5--5--------|

The third and fourth time the Drop D string is played 
"open" again, no palm mutes.

e|---------------------------------------------------|
B|---------------------------------------------------|
G|--------------------------5------------------------|
D|-----------------------5-----7--7------------------|
A|------------------5h7--------5--5------------------|
D|-0-0-0-0-0-0-0-0------------------0-0-0-0----------|
        
e|---------------------------------------------------|
B|---------------------------------------------------|
G|-------------------5-------------------------------|
D|----------------5-----8--8-8--8-8-8--8-8s10--10----|
A|-----------5h7--------8--8-10-8-8-10-8-10s12-10----|
D|--0-0-0-0-------------8--8-8--8-8-8--8-8s10--10----|

e|--------------|
B|--------------|
G|--------------|
D|--5--5--7--7--|
A|--5--5--5--5--|
D|--5--5--------|

e|---------------------------------------------------|
B|---------------------------------------------------|
G|--------------------------5------------------------|
D|-----------------------5-----7--7------------------|
A|------------------5h7--------5--5------------------|
D|-0-0-0-0-0-0-0-0------------------0-0-0-0----------|
        
e|---------------------------------------------------|
B|---------------------------------------------------|
G|-------------------5-------------------------------|
D|----------------5-----8--8-8--8-8-8--8-8s10--10----|
A|-----------5h7--------8--8-10-8-8-10-8-10s12-10----|
D|--0-0-0-0-------------8--8-8--8-8-8--8-8s10--10----|

e|--------|
B|--------|
G|--------|
D|--5--5--|
A|--5--5--|
D|--5--5--|



************************************

| h  Hammer-on
| p  Pull-off
| b  Bend
| bd Bend down
| s  Slide
| *  Palm mute

************************************

            
            
Suggest correction
Creating personal tab
Creating personal tab
You can edit any tab online and save it as your Personal.

You can edit, replace or remove any tab part or add personal notes – all changes will be seen only by you.

Personal tabs can be accessed anytime from any device, even offline.
Learn more »
Give kudos to tab author, rate the tab!
1 2 3 4 5
comments
print report bad tab
guest
You may want to rate the tab now too:
select rating
Wanna post a correction for this tab? Suggest correction