Oops, an error
Loading. Please wait.

Liktorn tab

version 2
version 2

Whole song

205 views 1 this week
no commentswrite comment
1 2 3 4 5
1 last vote to show rating
add to favorites
×
Save as Personal and add changes to this tab that will be seen only by you. Learn more ›
×
You can save this tab as Personal to edit and correct it or add notes. All changes will be seen only by you. Learn more »
launch autoscroll
font size
0
reset
how to read this tab
guitar tuner
edit
Autoscroll
slow
fast
+/-
esc
set tempo
stop
Author
  [Intro]

 e||-----------------------------------|
 B||-----------------------------------|
 G||-----------------------------------|
 D||--6-6-6-6-6-6-6-6-6-6-6-6-6-6-6-6--|
 A||--7-7-7-7-7-7-7-7-7-7-7-7-7-7-7-7--|
 E||-----------------------------------|

 e|-----------------------------------|
 B|-----------------------------------|
 G|-----------------------------------|
 D|--5-5-5-5-5-5-5-5-5-5-5-5-5-5-5-5--|
 A|--7-7-7-7-7-7-7-7-7-7-7-7-7-7-7-7--|
 E|-----------------------------------|

 e|-----------------------------------|
 B|-----------------------------------|
 G|-----------------------------------|
 D|--4-4-4-4-4-4-4-4-4-4-4-4-4-4-4-4--|
 A|--6-6-6-6-6-6-6-6-6-6-6-6-6-6-6-6--|
 E|-----------------------------------|

 e|-----------------------------------|
 B|-----------------------------------|
 G|-----------------------------------|
 D|--4-4-4-4-4-4-4-4-4-4-4-4-4-4-4-4--|
 A|--3-3-3-3-3-3-3-3-3-3-3-3-3-3-3-3--|
 E|-----------------------------------|

 e|-----------------------------------|
 B|-----------------------------------|
 G|-----------------------------------|
 D|--4-4-4-4-4-4-4-4-4-4-4-4-4-4-4-4--|
 A|--2-2-2-2-2-2-2-2-2-2-2-2-2-2-2-2--|
 E|-----------------------------------|

 e|-----------------------------------|
 B|-----------------------------------|
 G|-----------------------------------|
 D|--2-2-2-2-2-2-2-2-2-2-2-2-2-2-2-2--|
 A|--0-0-0-0-0-0-0-0-0-0-0-0-0-0-0-0--|
 E|-----------------------------------|

 e|-----------------------------------|
 B|-----------------------------------|
 G|-----------------------------------|
 D|--2-2-2-2-2-2-2-2-2-2-2-2-2-2-2-2--|
 A|--x-x-x-x-x-x-x-x-x-x-x-x-x-x-x-x--|
 E|--3-3-3-3-3-3-3-3-3-3-3-3-3-3-3-3--|

 e|-----------------------------------|
 B|-----------------------------------|
 G|-----------------------------------|
 D|--1-1-1-1-1-1-1-1-1-1-1-1-1-1-1-1--|
 A|--x-x-x-x-x-x-x-x-x-x-x-x-x-x-x-x--|
 E|--2-2-2-2-2-2-2-2-2-2-2-2-2-2-2-2--|

 e|-------------------||
 B|-------------------||
 G|-------------------||
 D|--4-4-4-4-4-4-4-4--|| x 2
 A|--2-2-2-2-2-2-2-2--||
 E|-------------------||

    00:28

 e||--------------------------------------------------|
 B||--------------0-----------------------0-----------|
 G||--------------------------------------------------|
 D||-----6-----6-----6-----6-----5-----5-----5-----5--| 
 A||--7-----7-----------7-----7-----7-----------7-----|
 E||--------------------------------------------------|

 e|--------------------------------------------------|
 B|--------------0-----------------------0-----------|
 G|--------------------------------------------------|
 D|-----4-----4-----4-----4-----4-----4-----4-----4--| 
 A|--6-----6-----------6-----3-----3-----------3-----|
 E|--------------------------------------------------|

 e|--------------------------------------------------|
 B|--------------0-----------------------0-----------|
 G|--------------------------------------------------|
 D|-----4-----4-----4-----4-----2-----2-----2-----2--| 
 A|--2-----2-----------2-----0-----0-----------0-----|
 E|--------------------------------------------------|

 e|--------------------------------------------------||
 B|--------------0-----------------0-----------0-----||
 G|--------------------------------------------------||
 D|-----2-----2-----2-----2-----1-----1-----1-----1--|| x 2
 A|--------------------------------------2-----------||
 E|--3-----3-----------3-----2-----------------------||

   00:54
 e|--------------------------------------------------|
 B|--------------------------------------------------|
 G|----------------------9---------------------------|
 D|--9---------5---------7---------------------------| 
 A|--7----6----3----2----0---------------------------|
 E|-----------------0---------0--2--3~--3--5--5s7----|

 e|----------------|
 B|----------------|
 G|----------------|
 D|-------------9--|
 A|--------6----7--|
 E|--5~------------|

   01:07
 e|---------------------------------------------------|
 B|---------------------------------------------------|
 G|---------------------------------------------------|
 D|--5-5-5-5-5-5-5-5-5-5-5-5-5-5-5-5-4-4-4-4-4-4-4-4--|
 A|--7-7-7-7-7-7-7-7-7-7-7-7-7-7-7-7-6-6-6-6-6-6-6-6--|
 E|---------------------------------------------------|

 e|------------------------------------|
 B|------------------------------------|
 G|------------------------------------|
 D|--4-4-4-4-4-4-4-4--4-4-4-4-4-4-4-4--|
 A|--3-3-3-3-3-3-3-3--2-2-2-2-2-2-2-2--|
 E|------------------------------------|

   On the next part of the build-up they are strumming
   an Asus2 chord all the way up to "itself" on the 
   14th fret. I didn't have the patience to tab every strum
   but I show you each position they move the chord to.
   Listen to the song to hear the strum patterns.
   
   01:15

 e|--0----0----0----0----0----0----0----0---|
 B|--0----0----0----0----0----0----0----0---|
 G|--2----4----5----7----9----10---12---14--|
 D|--2----4----5----7----9----10---12---14--|
 A|--0----0----0----0----0----0----0----0---|
 E|-----------------------------------------|

   01:39
  
   Rythm guitar Drop D

 e||-----||-------------------------------||
 B||-----||-------------------------------||
 G||-----||-------------------------------||
 D||--4--||--9-9----9-9----9-9----5----0--|| x 2
 A||--2--||--7-7----7-7----7-7----5----0--||
 D||-----||-----------------------5----0--||

    01:52 Rythm guitar Drop D

 e||-------------------------------||
 B||-------------------------------||
 G||-------------------------------||   
 D||--9-9----9-9----9-9----5----0--|| x 4
 A||--7-7----7-7----7-7----5----0--||
 D||-----------------------5----0--||

   01:52 Lead-guitar

 e|-------||--------------------------------------------|
 B|-------||--------------------------------------------|
 G|-------||--------------------------------------------|
 D|-------||------------------------------5h7--7s9--9~--| 
 A|--5h7--||--------------5--5s7-7~--5h7----------------|
 E|-------||--0--3--5--7--------------------------------|

 e|------------------------------------||
 B|------------------------------------||
 G|-------7h9--------------------------||
 D|--7h9-------7h9p7--5h7--7~----------|| x 4
 A|----------------------------5h7--7--||
 E|------------------------------------||
  
   2:19 Rythm Guitar 1 

 e|-------------|
 B|-------------|
 G|-------------|
 D|--5----5--4--|
 A|--3----2--2--|
 E|-------------|

   2:19 Rythm Guitar 2

 e|-------------|
 B|-------------|
 G|-------------|
 D|--5----4--4--|
 A|--3----2--2--|
 E|--3----------|

    02:22 

 e||--------------------------------------------|
 B||--------------------------------------------|
 G||--------------------------------------------|
 D||--9--9--9--8--8--9--9--5--5--5--4--4--5--5--|
 A||--7--7--7--7--7--7--7--3--3--3--3--3--3--3--|
 E||--------------------------------------------|

 e|--------------------------------------------||
 B|--------------------------------------------||
 G|--------------------------------------------||
 D|--9--9--9--8--8--9--9--12--12--12--5--5--5--|| x 6
 A|--7--7--7--7--7--7--7--10--10--10--3--3--3--||
 E|--------------------------------------------||

   03:01 Rythm guitar Drop D

 e|-----------------------------------------------|
 B|-----------------------------------------------|
 G|-----------------------------------------------|
 D|--2--2--2--4--0--0--0--2--4--7--7--7--5--4--5--|
 A|--2--2--2--4--0--0--0--2--4--7--7--7--5--4--5--|
 D|--2--2--2--4--0--0--0--2--4--7--7--7--5--4--5--|

 e|-----------------|
 B|-----------------|
 G|-----------------|
 D|--5--4--2--0--4--|
 A|--5--4--2--0--4--|
 D|--5--4--2--0--4--|

 e|-------------------------------------------------|
 B|-------------------------------------------------|
 G|-------------------------------------------------|
 D|--2--2--2--4--0--0--0--2--4--5--5--5s7--7--8--7--|
 A|--2--2--2--4--0--0--0--2--4--5--5--5s7--7--8--7--|
 D|--2--2--2--4--0--0--0--2--4--5--5--5s7--7--8--7--|

 e|----------------------|
 B|----------------------|
 G|--11--11s12--11-9--7--|
 D|--9---9-s10--9--7--5--|
 A|----------------------|
 D|----------------------|

    03:14

    Rythm guitar 1
 e||--------------------------------------|
 B||--------------------------------------|
 G||--------------------------7--7--------|
 D||--9--9--7--7--9--9--5--5--5--5--7--7--|
 A||--7--7--7--7--7--7--3--3--------5--5--|
 E||--------------------------------------|
  ||Rythm guitar 2                        |
 e||--------------------------------------|
 B||--------------------------------------|
 G||--------------------------7--7--------|
 D||--9--9--7--7--9--9--5--5--5--5--7--7--|
 A||--7--7--7--7--7--7--3--3--------5--5--|
 E||--------------------------------------|                                     
   
    Rythm guitar 1
 e|--------------------------------------||
 B|--------------------------------------||
 G|--------------------------------------||
 D|--9--9--7--7--9--9--5--5--7--7--------||
 A|--7--7--7--7--7--7--3--3--5--5--7--7--||
 E|--------------------------------5--5--||
  | Rythm guitar 2                       || x 2
 e|--------------------------------------||
 B|--------------------------------------||
 G|--------------------------------------||
 D|--9--9--7--7--9--9--5--5--7--7--------||
 A|--7--7--7--7--7--7--3--3--5--5--7--7--||
 E|--------------------3--3--5--5--5--5--||

   03:27 

   Rythm guitar 1
 e|--------------------------------------|
 B|--------------------------------------|
 G|--------------------------7--7--------|
 D|--9--9--7--7--9--9--5--5--5--5--7--7--|
 A|--7--7--7--7--7--7--3--3--------5--5--|
 E|--------------------------------------|
  |Rythm guitar 2                        |
 e|--------------------------------------|
 B|--------------------------------------|
 G|--------------------------7--7--------|
 D|--9--9--7--7--9--9--5--5--5--5--7--7--|
 A|--7--7--7--7--7--7--3--3--------5--5--|
 E|--------------------------------------| 

   Rythm guitar 1
 e|--------------------------------------|
 B|--------------------------------------|
 G|--------------------------------------|
 D|--9--9--7--7--9--9--5--5--7--7--------|
 A|--7--7--7--7--7--7--3--3--5--5--7--7--|
 E|--------------------------------5--5--|
  | Rythm guitar 2                       | 
 e|--------------------------------------|
 B|--------------------------------------|
 G|--------------------------------------|
 D|--9--9--7--7--9--9--5--5--7--7--------|
 A|--7--7--7--7--7--7--3--3--5--5--7--7--|
 E|--------------------3--3--5--5--5--5--|  

    Rythm guitar 1
 e|--------------------------------------|
 B|--------------------------------------|
 G|--------------------------7--7--------|
 D|--9--9--7--7--9--9--5--5--5--5--7--7--|
 A|--7--7--7--7--7--7--3--3--------5--5--|
 E|--------------------------------------|
  |Rythm guitar 2                        |
 e|--------------------------------------|
 B|--------------------------------------|
 G|--------------------------7--7--------|
 D|--9--9--7--7--9--9--5--5--5--5--7--7--|
 A|--7--7--7--7--7--7--3--3--------5--5--|
 E|--------------------------------------|   

   Rythm guitar 1
 e|--------------------------------------|
 B|--------------------------------------|
 G|--------------------------------------|
 D|--9--9--7--7--9--9--------------------|
 A|--7--7--7--7--7--7--------------------|
 E|--------------------------------------|
  | Rythm guitar 2                       | 
 e|--------------------------------------|
 B|--------------------------------------|
 G|--------------------------------------|
 D|--9--9--7--7--9--9--------------------|
 A|--7--7--7--7--7--7--------------------|
 E|--------------------------------------|  

   03:27

   Lead Guitar 1
 e|--------------------------------------------------|
 B|--------------------------------------------------|
 G|--------------------------------------------------|
 D|--9--9s7--7s9--9~--5--5s12--12s7--7~--------------|
 A|--------------------------------------------------|
 E|--------------------------------------------------|
  | Lead guitar 2                                    |
 e|--------------------------------------------------|
 B|--------------------------------------------------|
 G|--------------------------------------------------|
 D|--5--5s4--4s5--5~--2--2s9---9s4---4~--------------|
 A|--------------------------------------------------|
 E|--------------------------------------------------| 

   Lead Guitar 1
 e|--------------------------------------------------|
 B|--------------------------------------------------|
 G|--------------------------------------------------|
 D|--9--9s7--7s9--9~--5--5s7--7--2--2~---------------|
 A|--------------------------------------------------|
 E|--------------------------------------------------|
  | Lead guitar 2                                    |
 e|--------------------------------------------------|
 B|--------------------------------------------------|
 G|--------------------------------------------------|
 D|--5--5s4--4s5--5~--5s7--7--2--2~------------------|
 A|--------------------------------------------------|
 E|--------------------------------------------------| 

   Lead Guitar 1
 e|--------------------------------------------------|
 B|--------------------------------------------------|
 G|--------------------------------------------------|
 D|--9--9s7--7s9--9~--5--5--4------------------------| 
 A|--------------------------------------------------|
 E|--------------------------------------------------|
  | Lead guitar 2                                    |
 e|--------------------------------------------------|
 B|--------------------------------------------------|
 G|--------------------------------------------------|
 D|--5--5s4--4s5--5~--2--2--1------------------------|
 A|--------------------------------------------------|
 E|--------------------------------------------------| 

    03:41 

 e||-----------------------------------|
 B||-----------------------------------|
 G||-----------------------------------|
 D||--9-9-9-9-9-9-9-9-8-8-8-8-9-9-9-9--|
 A||--7-7-7-7-7-7-7-7-7-7-7-7-7-7-7-7--|
 E||-----------------------------------|

 e|------------------------------------|
 B|------------------------------------|
 G|------------------------------------|
 D|--5-5-5-5-5-5-5-5-4-4-4-4-5-5-5-5---|
 A|--3-3-3-3-3-3-3-3-3-3-3-3-3-3-3-3---|
 E|------------------------------------|

 e|------------------------------------|
 B|------------------------------------|
 G|------------------------------------|
 D|--9-9-9-9-9-9-9-9-8-8-8-8-9-9-9-9---|
 A|--7-7-7-7-7-7-7-7-7-7-7-7-7-7-7-7---|
 E|------------------------------------|

 e|--------------------------------------------||
 B|--------------------------------------------||
 G|--------------------------------------------||
 D|--12-12-12-12-12-12-12-12--5-5-5-5-5-5-5-5--|| x 2
 A|--10-10-10-10-10-10-10-10--3-3-3-3-3-3-3-3--||
 E|--------------------------------------------||
  
    03:54 

 e||----------------------------------------------|
 B||----------------------------------------------|
 G||----------------------------------------------|
 D||--9-9-9-8-8-9-9--5-5-5-4-4-5-5--9-9-9-8-8-9-9-|
 A||--7-7-7-7-7-7-7--3-3-3-3-3-3-3--7-7-7-7-7-7-7-|
 E||----------------------------------------------|

 e|-------------------||
 B|-------------------||
 G|-------------------||
 D|--12-12-12--5-5-5--|| x 2
 A|--10-10-10--3-3-3--||
 E|-------------------||

    03:54 Rythm guitar 2 Drop D tuning
 e||---------------------------------------------------|
 B||---------------------------------------------------|
 G||---------------------------------------------------|
 D||---------------------------------------------------| 
 A||--7-7-7-7-7-7-7-7-3-3-3-3-3-3-3-3-7-7-7-7-7-7-7-7--|
 D||--7-7-7-7-7-7-7-7-3-3-3-3-3-3-3-3-7-7-7-7-7-7-7-7--|


 e|-------------------||
 B|-------------------||
 G|-------------------||
 D|-------------------|| x 2
 A|--10-10-10--3-3-3--||
 D|--10-10-10--3-3-3--||

   04:07

 e|--------------------------------------|
 B|--------------------------------------|
 G|--4-4-4--5-5-5-5-5--6-6-6--7-7-7-7-7--|
 D|--2-2-2--3-3-3-3-3--4-4-4--5-5-5-5-5--|
 A|--0-0-0--0-0-0-0-0--0-0-0--0-0-0-0-0--|
 E|--------------------------------------|

   For each chord tabbed, play it twice. Because they
   play it very fast on this part.So the first A-chord
   is played 16 times, the next D-chord 6 etc.
   
 e|-----------------------------------------------|
 B|-------------------6-6-6--8-8-8-8-8------------|
 G|--9-9-9-9-9-9-9-9--7-7-7--9-9-9-9-9------------|
 D|--7-7-7-7-7-7-7-7--0-0-0--0-0-0-0-0--10-10-10--|
 A|--0-0-0-0-0-0-0-0--------------------8--8--8---|
 E|-----------------------------------------------|

     Fsus2                D/F#
 e|------------------------------------|
 B|--8--8--8--8--8---------------------|
 G|--10-10-10-10-10-------7-7-7-7-7-7--|
 D|--10-10-10-10-10-------7-7-7-7-7-7--| 
 A|--8--8--8--8--8---7h9--9-9-9-9-9-9--|
 E|------------------------------------|

 e|--------------------------------------------|
 B|-------------------6-6-6--8-8-8-8-8--10-10--|
 G|--9-9-9-9-9-9-9-9--7-7-7--9-9-9-9-9--10-10--|
 D|--7-7-7-7-7-7-7-7--0-0-0--0-0-0-0-0--0--0---|
 A|--0-0-0-0-0-0-0-0---------------------------|
 E|--------------------------------------------|

   Fsus2                D/F#
 e|----------------------------------------------|
 B|------------8--8--8--8--8---------------------|
 G|------------10-10-10-10-10-------7-7-7-7-7-7--|
 D|--10-10-10--10-10-10-10-10-------7-7-7-7-7-7--| 
 A|--8--8--8---8--8--8--8--8---7h9--9-9-9-9-9-9--|
 E|----------------------------------------------|

   04:23

   The speed of the riff is halved, so from here on
   play the tab exactly as it is shown.

 e|-----------------------------------------------|
 B|-------------------6-6-6--8-8-8-8-8------------|
 G|--9-9-9-9-9-9-9-9--7-7-7--9-9-9-9-9------------|
 D|--7-7-7-7-7-7-7-7--0-0-0--0-0-0-0-0--10-10-10--|
 A|--0-0-0-0-0-0-0-0--------------------8--8--8---|
 E|-----------------------------------------------|

     Fsus2                D/F#
 e|------------------------------------|
 B|--8--8--8--8--8---------------------|
 G|--10-10-10-10-10-------7-7-7-7-7-7--|
 D|--10-10-10-10-10-------7-7-7-7-7-7--| 
 A|--8--8--8--8--8---7h9--9-9-9-9-9-9--|
 E|------------------------------------|

 e|--------------------------------------------|
 B|-------------------6-6-6--8-8-8-8-8--10-10--|
 G|--9-9-9-9-9-9-9-9--7-7-7--9-9-9-9-9--10-10--|
 D|--7-7-7-7-7-7-7-7--0-0-0--0-0-0-0-0--0--0---|
 A|--0-0-0-0-0-0-0-0---------------------------|
 E|--------------------------------------------|

   Fsus2       D/F#
 e|----------------------------------------------|
 B|------------8--8--8--8--8---------------------|
 G|------------10-10-10-10-10--------------------|
 D|--10-10-10--10-10-10-10-10--7--7-7--10-10--9--|
 A|--8--8--8---8--8--8--8--8---5--5-5--8--8---7--|
 E|-------------------------------5-5--8--8---7--|

    04:37

   Palm mute on the open E notes.

 e|---------------------------------------------------|
 B|---------------------------------------------------|
 G|---------------------------------------------------|
 D|--9--9----------9--9----------9--9----------9---7--| x 4
 A|--7--7----------7--7----------7--7----------7---5--|
 E|--------0-0-0-0-------0-0-0-0-------0-0-0-0-----5--| 

   
   04:41 + 04:48

   Lead guitar 1
 e|---------------------|
 B|---------------------|
 G|---------------------|
 D|--7h9p7--5--7--5s7~--|
 A|---------------------|
 E|---------------------|
  |Lead guitar 2        |
 e|---------------------|
 B|--7h8p7--5--7--5s7~--|
 G|---------------------|
 D|---------------------|
 A|---------------------|
 E|---------------------|

   05:02

 e|-------||-------------------------------------------|
 B|-------||-------------------------------------------|
 G|-------||-------------------------------------------|
 D|-------||------------------------------5h7--7s9-----| 
 A|--5h7--||--------------5--5s7-----5h7---------------|
 E|-------||--0--3--5--7----------0-----------------0--|

 e|-----------------------------------||
 B|-----------------------------------||
 G|-------7h9-------------------------||
 D|--7h9-------7h9p7--5h7--7----------|| x 4
 A|------------------------5--5h7--7--||
 E|------------------------5----------||

   05:28
 
 e|-----------------|
 B|-----------------|
 G|-----------------|
 D|--5--5--4--9--9--|
 A|--3--2--6--7--7--|
 E|--3--------------|

 
 ***************************
 |h  = hammer-on
 |p  = pull-off
 |b  = bend
 |s  = slide
 |~  = vibrato
 ***************************

            
            
Suggest correction
Creating personal tab
Creating personal tab
You can edit any tab online and save it as your Personal.

You can edit, replace or remove any tab part or add personal notes – all changes will be seen only by you.

Personal tabs can be accessed anytime from any device, even offline.
Learn more »
Give kudos to tab author, rate the tab!
1 2 3 4 5
comments
print report bad tab
guest
You may want to rate the tab now too:
select rating
Wanna post a correction for this tab? Suggest correction