Oops, an error
Loading. Please wait.

Mjod Bass Tab

version 2
version 2

Whole song

2,840 views 9 this week
4 commentsread comments
1 2 3 4 5
accurate
x 3
add to favorites
launch autoscroll
font size
0
reset
guitar tuner
Autoscroll
slow
fast
+/-
esc
set tempo
stop
Help us to improve Ultimate-Guitar.com Take our survey!
×
Author
Difficulty
Tuning
novice
D A D G B E
-----------------------------------------------------------------------------
                            Mjød - Kvelertak
-----------------------------------------------------------------------------
Far from 100% accurate, sound decent thou.  
-----------------------------------------------------------------------------

Tabbed By : Trasigkatt
e-mail: Trasigkatt@gmail.com

Tuning: Drop D
-----------------------------------------------------------------------------


Intro(1) / Chorus

G|--------------------------------------------------------------------------|
D|--------------------------------------------------------------------------|
A|-0--0--0--0--5-5-3-0--0-0-0--5-5-3----------3-3-5----------------------------|
D|-----------------------------------3--3-3-3-------5-5-5-5--------------------|

Intro(2)

G|--------------------------------------------------------------------------|
D|--------------------------------------------------------------------------|
A|-0-0-0-0-0-0-0------------------------------------------------------------|
D|--------------------------------------------------------------------------|

Vers(1)

G|--------------------------------------------------------------------------|
D|------------------------------5-5-5---------------------------------------|
A|-3-3-3-3-3-3-3--0-0-0-0-0-0-0-------5-5-5---------------------------------|
D|--------------------------------------------------------------------------| 

Vers(2)

G|--------------------------------------------------------------------------|
D|---------------------------------------------5-5-5------------------------|
A|-0-0-0-0-0-0-0--3-3-3-3-3-3-3--0-0-0-0-0-0-0-------5-5-5------------------|
D|--------------------------------------------------------------------------| 

Order:
Intro(1) x4
Guitar only part
Intro(2) x4
Vers(1) x1
Vers(2) x3
Chorus x2 
Acoustic Guitar Riff
Vers(1) x1
Vers(2) x3
Chorus x4



| /  slide up
| \  slide down
| h  hammer-on
| p  pull-off
| ~  vibrato
| +  harmonic
| x  Mute note
=============================================================================   
Suggest correction
Give kudos to tab author, rate the tab!
1 2 3 4 5
comments
print report bad tab
4 comments total. Showing first comments.
0 reply
Inglig909 43 wrote on June 8 2013, 04:50 am

Good tab, works really well

-1 reply
svaien 10 wrote on August 14 2013, 08:08 am

this tab is ****ing super wrong

0 reply
mrmetalmario 10 wrote on January 11 2015, 10:42 am

I think the verse goes like this, instead of those 5s


G|----------------------------------7-7-------------------------------------|
D|------------------------------5-5-------7-7-------------------------------|
A|-3-3-3-3-3-3-3--0-0-0-0-0-0-0-------5-5-----------------------------------|
D|--------------------------------------------------------------------------|

also the bass should pick double the speed during the tremolo section and again those notes are a bit different but I haven't figured out what they are yet

guest
You may want to rate the tab now too:
select rating
Wanna post a correction for this tab? Suggest correction