Oops, an error
Loading. Please wait.

Nattesferd tab

2,821 views 48 this week
no commentswrite comment
1 2 3 4 5
x 5
add to favorites
×
Save as Personal and add changes to this tab that will be seen only by you. Learn more ›
×
You can save this tab as Personal to edit and correct it or add notes. All changes will be seen only by you. Learn more »
launch autoscroll
font size
0
reset
how to read this tab
guitar tuner
edit
Autoscroll
slow
fast
+/-
esc
set tempo
stop
Author
Difficulty
KVELERTAK
"Nattesferd"
From the album "Nattesferd" (2016)

Standard Tuning
Tempo = 178 bpm


[Intro]

   Bass + Gtr 1
e|-----------------|-----------------|
B|-----------------|-----------------|
G|-----------------|-----------------|
D|---------------7-|-7-7-7-7-7-------|
A|-0-0-0-0-0-3-5---|-----------5-3-0-|
E|-----------------|-----------------|

   Gtr 2 (Stereo Right)
e|-----------------|-----------------|
B|-----------------|-----------------|
G|---------------5-|-5-5-5-5-5-------|
D|-----------2-3---|-----------3-2---|
A|-3-3-3-3-3-------|---------------3-|
E|-----------------|-----------------|

   Gtr 3 (Stereo Left)
e|-----------------|-----------------|
B|-----------------|-----------------|
G|---------------9-|-9-9-9-9-9-------|
D|-2-2-2-2-2-5-7---|-----------7-5-2-|
A|-----------------|-----------------|
E|-----------------|-----------------|


[0:53]

   Gtr 2
e|---------------------|-------------------|-----------------|-----------------|
B|---------------/10-8-|-(8)---------------|-----------------|-------------8---|
G|-----5-7b9-7-5-------|-------------------|-----------------|-----------9---9-|
D|-5-7-----------------|-------------------|-----------------|-----------------|
A|---------------------|-------------------|-----------------|-----------------|
E|---------------------|-------------------|-----------------|-----------------|
 |
 | Gtr 1
e|---------------------|-------------------|-----------------|-----------------|
B|---------------------|-------------------|-----------------|-----------------|
G|---------------------|-------------------|-----------------|-----------------|
D|---------------------|-------------------|-----------------|-----------------|
A|-0-0-0-0---0-3---5-0-|--0--0-0-0-0-5-3-0-|-0-0-0-0-0-3-5-0-|-0-0-0-0-0-5-3-0-|
E|---------------------|-------------------|-----------------|-----------------|


e|------------------|-------------------|-----------------|------------------|
B|-8---10-------6-5-|-(5)---------------|-----------------|------------------|
G|---9----9\7-5-----|-------------------|-----------------|------------------|
D|------------------|-------------------|-----------------|---------------5h=|
A|------------------|-------------------|-----------------|------------------|
E|------------------|-------------------|-----------------|------------------|
 |
e|------------------|-------------------|-----------------|------------------|
B|------------------|-------------------|-----------------|------------------|
G|------------------|-------------------|-----------------|------------------|
D|------------------|-------------------|-----------------|------------------|
A|-0-0--0-0-0-3-5-0-|--0--0-0-0-0-5-3-0-|-0-0-0-0-0-3-5-0-|-0-0-0-0-0-5-3-0--|
E|------------------|-------------------|-----------------|------------------|


e|---------------------|-------------------|-----------------|-----------------|
B|---------------/10-8-|-(8)---------------|-----------------|-------------8---|
G|---5-7-7b9-7-5-------|-------------------|-----------------|-----------9---9-|
D|-7-------------------|-------------------|-----------------|-----------------|
A|---------------------|-------------------|-----------------|-----------------|
E|---------------------|-------------------|-----------------|-----------------|
 |
e|---------------------|-------------------|-----------------|-----------------|
B|---------------------|-------------------|-----------------|-----------------|
G|---------------------|-------------------|-----------------|-----------------|
D|---------------------|-------------------|-----------------|-----------------|
A|-0-0-0-0---0-3---5-0-|--0--0-0-0-0-5-3-0-|-0-0-0-0-0-3-5-0-|-0-0-0-0-0-5-3-0-|
E|---------------------|-------------------|-----------------|-----------------|


e|--------------------|-------------------|-----------------|-----------------|
B|-10-----------------|-------------------|-----------------|-----------------|
G|----9-7-------------|-------------------|-----------------|-----------------|
D|--------10-9------7-|-(7)---------------|-----------------|-----------------|
A|-------------10-7---|-------------------|-----------------|-----------------|
E|--------------------|-------------------|-----------------|-----------------|
 |
e|--------------------|-------------------|-----------------|-----------------|
B|--------------------|-------------------|-----------------|-----------------|
G|--------------------|-------------------|-----------------|-----------------|
D|--------------------|-------------------|-----------------|-----------------|
A|--0-0-0--0-0--3-5-0-|--0--0-0-0-0-5-3-0-|-0-0-0-0-0-3-5-0-|-0-0-0-0-0-5-3-0-|
E|--------------------|-------------------|-----------------|-----------------|


[1:16]

   Gtr 2
e|-----------------------|---------------------|------------------|----------------------|
B|-----------------/10-8-|-(8)-----------8-----|-8---10-------6-5-|-(5)------------------|
G|-----5-7-7b9-7-5-------|-------------9---9---|---9----9\7-5-----|----------------------|
D|-5h7-------------------|---------------------|------------------|------------------5---|
A|-----------------------|---------------------|------------------|----------------------|
E|-----------------------|---------------------|------------------|----------------------|
 |
 | Acoustic
e|-----------------------|---------------------|------------------|----------------------|
B|-1-----1-1---1---------|---------------------|----------------1-|-(1)-1-1-1-1-1-1--1-1-|
G|-2-----2-2---2-4-----2-|-(2)-2-2-2-2-2-2-2-2-|-2----2-2-2-4---2-|-(2)-2-2-2-2-2-2--2-2-|
D|-2-----2-2---2-5-----3-|-(3)-3-3-3-3-3-3-3-3-|-3----3-3-3-5---2-|-(2)-2-2-2-2-2-2--2-2-|
A|-0-----0-0---0-5-----3-|-(3)-3-3-3-3-3-3-3-3-|-3----3-3-3-5---0-|-(0)-0-0-0-0-0-0--0-0-|
E|---------------3-----1-|-(1)-1-1-1-1-1-1-1-1-|-1----1-1-1-3-----|----------------------|


e|-----------------------|---------------------|--------------------|-------------------|
B|-----------------/10-8-|-(8)-----------8-----|-10-----------------|-------------------|
G|-----5-7-7b9-7-5-------|-------------9---9---|----9-7-------------|-------------------|
D|-5h7-------------------|---------------------|--------10-9------7-|-(7)---------------|
A|-----------------------|---------------------|-------------10-7---|-------------------|
E|-----------------------|---------------------|--------------------|-------------------|
 |
e|-----------------------|---------------------|--------------------|-------------------|
B|-1-----1-1---1---------|---------------------|------------------1-|-(1)-1-1-1-1-1-1-1-|
G|-2-----2-2---2-4-----2-|-(2)-2-2-2-2-2-2-2-2-|--2---2--2-2--4---2-|-(2)-2-2-2-2-2-2-2-|
D|-2-----2-2---2-5-----3-|-(3)-3-3-3-3-3-3-3-3-|--3---3--3-3--5---2-|-(2)-2-2-2-2-2-2-2-|
A|-0-----0-0---0-5-----3-|-(3)-3-3-3-3-3-3-3-3-|--3---3--3-3--5---0-|-(0)-0-0-0-0-0-0-0-|
E|---------------3-----1-|-(1)-1-1-1-1-1-1-1-1-|--1---1--1-1--3-----|-------------------|


[1:38]

   Gtr 2
e|-----------------------|---------------------|------------------|----------------------|
B|-----------------/10-8-|-(8)-----------8-----|-8---10-------6-5-|-(5)------------------|
G|-----5-7-7b9-7-5-------|-------------9---9---|---9----9\7-5-----|----------------------|
D|-5h7-------------------|---------------------|------------------|------------------5---|
A|-----------------------|---------------------|------------------|----------------------|
E|-----------------------|---------------------|------------------|----------------------|
 |
 | Gtr 1
e|-----------------------|---------------------|------------------|----------------------|
B|-----------------------|---------------------|------------------|----------------------|
G|-2-----2-2---2---------|---------------------|----------------2-|-(2)-2-2-2-2-2-2--2-2-|
D|-2-----2-2---2-5-----3-|-(3)-3-3-3-3-3-3-3-3-|-3----3-3-3-5---2-|-(2)-2-2-2-2-2-2--2-2-|
A|-0-----0-0---0-5-----3-|-(3)-3-3-3-3-3-3-3-3-|-3----3-3-3-5---0-|-(0)-0-0-0-0-0-0--0-0-|
E|---------------3-----1-|-(1)-1-1-1-1-1-1-1-1-|-1----1-1-1-3-----|----------------------|


e|-----------------------|---------------------|--------------------|----------------------|
B|-----------------/10-8-|-(8)-----------8-----|-10-----------------|----------------------|
G|-----5-7-7b9-7-5-------|-------------9---9---|----9-7-------------|----------------------|
D|-5h7-------------------|---------------------|--------10-9------7-|-(7)------------------|
A|-----------------------|---------------------|-------------10-7---|----------------------|
E|-----------------------|---------------------|--------------------|----------------------|
 |
e|-----------------------|---------------------|--------------------|----------------------|
B|-----------------------|---------------------|--------------------|----------------------|
G|-2-----2-2---2---------|---------------------|----------------2---|-(2)-2-2-2-2-2-2--2-2-|
D|-2-----2-2---2-5-----3-|-(3)-3-3-3-3-3-3-3-3-|-3----3-3-3-5---2---|-(2)-2-2-2-2-2-2--2-2-|
A|-0-----0-0---0-5-----3-|-(3)-3-3-3-3-3-3-3-3-|-3----3-3-3-5---0---|-(0)-0-0-0-0-0-0--0-0-|
E|---------------3-----1-|-(1)-1-1-1-1-1-1-1-1-|-1----1-1-1-3-------|----------------------|


[Verse]

e|-----------------|-------------------|-----------------|-------------------|
B|-----------------|-------------------|-----------------|-------------------|
G|-5-5-5-5-8/10----|-------------------|---------8/10--5-|-(5)-5-5-5-5-3-3-3-|
D|-5-5-5-5-8/10--6-|-(6)-6-6-6-6-6-6-6-|-6-6-6-6-8/10--5-|-(5)-5-5-5-5-3-3-3-|
A|-3-3-3-3-6//8--6-|-(6)-6-6-6-6-6-6-6-|-6-6-6-6-6//8--3-|-(3)-3-3-3-3-1-1-1-|
E|---------------4-|-(4)-4-4-4-4-4-4-4-|-4-4-4-4---------|-------------------|


[Pre-Chorus]

e|----------------|-------------------|----------------|-------------------|
B|----------------|-------------------|----------------|-------------------|
G|----------------|-------------------|----------------|-------------------|
D|-7-7-7-7-7-5--3-|-(3)-3-3-3-3-3-3-3-|-3-3-3-3---5--7-|-(7)-7-7-7-7-7-7-7-|
A|-7-7-7-7-7-5--3-|-(3)-3-3-3-3-3-3-3-|-3-3-3-3-2-5--7-|-(7)-7-7-7-7-7-7-7-|
E|-5-5-5-5-5-3--1-|-(1)-1-1-1-1-1-1-1-|-1-1-1-1-0-3--5-|-(5)-5-5-5-5-5-5-5-|


[Chorus]

e|-------0--------|---------0-------|---------0-----0-|-(0)-0---0-----|
B|---3------3-----|-----3------3----|-----3-----3---8-|-(8)-8--10-----|
G|-----2----------|-------0------0--|-------0-----0-7-|-(7)-7---9-----|
D|-0----------2/3-|-(3)-------------|-3h5-----------5-|-(5)-5---7-----|
A|----------------|-----------------|-----------------|---------------|
E|----------------|-----------------|-----------------|---------------|


e|---------------|-----------|
B|---------------|-----------|
G|---------------|-----------|
D|-7-7-7-5--5--9-|--9--7-----|
A|-7-7-7-5--5--9-|--9--7-----|
E|-5-5-5-3--3--7-|--7--5-----|


[2:42]

   Gtr 2
e|-----------------------|---------------------|------------------|----------------------|
B|-----------------/10-8-|-(8)-----------8-----|-8---10-------6-5-|-(5)------------------|
G|-----5-7-7b9-7-5-------|-------------9---9---|---9----9\7-5-----|----------------------|
D|-5h7-------------------|---------------------|------------------|------------------5---|
A|-----------------------|---------------------|------------------|----------------------|
E|-----------------------|---------------------|------------------|----------------------|
 |
 | Gtr 1
e|-----------------------|---------------------|------------------|----------------------|
B|-----------------------|---------------------|------------------|----------------------|
G|-2-----2-2---2---------|---------------------|----------------2-|-(2)-2-2-2-2-2-2--2-2-|
D|-2-----2-2---2-5-----3-|-(3)-3-3-3-3-3-3-3-3-|-3----3-3-3-5---2-|-(2)-2-2-2-2-2-2--2-2-|
A|-0-----0-0---0-5-----3-|-(3)-3-3-3-3-3-3-3-3-|-3----3-3-3-5---0-|-(0)-0-0-0-0-0-0--0-0-|
E|---------------3-----1-|-(1)-1-1-1-1-1-1-1-1-|-1----1-1-1-3-----|----------------------|


e|-----------------------|---------------------|--------------------|----------------------|
B|-----------------/10-8-|-(8)-----------8-----|-10-----------------|----------------------|
G|-----5-7-7b9-7-5-------|-------------9---9---|----9-7-------------|----------------------|
D|-5h7-------------------|---------------------|--------10-9------7-|-(7)------------------|
A|-----------------------|---------------------|-------------10-7---|----------------------|
E|-----------------------|---------------------|--------------------|----------------------|
 |
e|-----------------------|---------------------|--------------------|----------------------|
B|-----------------------|---------------------|--------------------|----------------------|
G|-2-----2-2---2---------|---------------------|----------------2---|-(2)-2-2-2-2-2-2--2-2-|
D|-2-----2-2---2-5-----3-|-(3)-3-3-3-3-3-3-3-3-|-3----3-3-3-5---2---|-(2)-2-2-2-2-2-2--2-2-|
A|-0-----0-0---0-5-----3-|-(3)-3-3-3-3-3-3-3-3-|-3----3-3-3-5---0---|-(0)-0-0-0-0-0-0--0-0-|
E|---------------3-----1-|-(1)-1-1-1-1-1-1-1-1-|-1----1-1-1-3-------|----------------------|


e|-----------------------|---------------------|------------------|----------------------|
B|-----------------/10-8-|-(8)-----------8-----|-8---10-------6-5-|-(5)------------------|
G|-----5-7-7b9-7-5-------|-------------9---9---|---9----9\7-5-----|----------------------|
D|-5h7-------------------|---------------------|------------------|------------------5---|
A|-----------------------|---------------------|------------------|----------------------|
E|-----------------------|---------------------|------------------|----------------------|
 |
e|-----------------------|---------------------|------------------|----------------------|
B|-----------------------|---------------------|------------------|----------------------|
G|-2-----2-2---2---------|---------------------|----------------2-|-(2)-2-2-2-2-2-2--2-2-|
D|-2-----2-2---2-5-----3-|-(3)-3-3-3-3-3-3-3-3-|-3----3-3-3-5---2-|-(2)-2-2-2-2-2-2--2-2-|
A|-0-----0-0---0-5-----3-|-(3)-3-3-3-3-3-3-3-3-|-3----3-3-3-5---0-|-(0)-0-0-0-0-0-0--0-0-|
E|---------------3-----1-|-(1)-1-1-1-1-1-1-1-1-|-1----1-1-1-3-----|----------------------|


e|-----------------------|---------------------|-----------------------|--------------------|
B|-----------------/10-8-|-(8)-----------------|-----------------------|--------------------|
G|-----5-7-7b9-7-5-------|-----------------5---|-7b9r7-5-7b9r7-5-5-7-5-|-(5)~~~-------------|
D|-5h7-------------------|-------------5-7-----|-----------------------|--------------------|
A|-----------------------|---------------------|-----------------------|--------------------|
E|-----------------------|---------------------|-----------------------|--------------------|
 |
e|-----------------------|---------------------|-----------------------|--------------------|
B|-1-----1-1---1---------|---------------------|---------------------1-|-(1)-1-1-1-1-1-1-1--|
G|-2-----2-2---2-4-----2-|-(2)-2-2-2-2-2-2-2-2-|-2-----2-2---2-4-----0-|-(0)-0-0-0-0-0-0-0--|
D|-2-----2-2---2-5-----3-|-(3)-3-3-3-3-3-3-3-3-|-3-----3-3---3-5-----2-|-(2)-2-2-2-2-2-2-2--|
A|-0-----0-0---0-5-----3-|-(3)-3-3-3-3-3-3-3-3-|-3-----3-3---3-5-----3-|-(3)-3-3-3-3-3-3-3--|
E|---------------3-----1-|-(1)-1-1-1-1-1-1-1-1-|-1-----1-1---1-3-------|--------------------|


[Verse 2]

e|-----------------|-------------------|-----------------|-------------------|
B|-----------------|-------------------|-----------------|-------------------|
G|-5-5-5-5-8/10----|-------------------|---------8/10--5-|-(5)-5-5-5-5-3-3-3-|
D|-5-5-5-5-8/10--6-|-(6)-6-6-6-6-6-6-6-|-6-6-6-6-8/10--5-|-(5)-5-5-5-5-3-3-3-|
A|-3-3-3-3-6//8--6-|-(6)-6-6-6-6-6-6-6-|-6-6-6-6-6//8--3-|-(3)-3-3-3-3-1-1-1-|
E|---------------4-|-(4)-4-4-4-4-4-4-4-|-4-4-4-4---------|-------------------|


e|-----------------|-------------------|------------------|------------------------|
B|-----------------|-------------------|------------------|------------------------|
G|-5-5-5-5-8/10----|-------------------|---------------10-|-(10)-10-10-10-10-8-8-8-|
D|-5-5-5-5-8/10--6-|-(6)-6-6-6-6-6-6-6-|-6-6-6---------10-|-(10)-10-10-10-10-8-8-8-|
A|-3-3-3-3-6//8--6-|-(6)-6-6-6-6-6-6-6-|-6-6-6-----6----8-|--(8)--8--8--8--8-6-6-6-|
E|---------------4-|-(4)-4-4-4-4-4-4-4-|-4-4-4-6/8---8----|------------------------|


e|-----------------|-------------------|-----------------|-------------------|
B|---------------4-|-(4)-4-4-4-4-4-4-4-|-4-4-4-4---------|-------------------|
G|-5-5-5-5-8/10--5-|-(5)-5-5-5-5-5-5-5-|-5-5-5-5-8/10--5-|-(5)-5-5-5-5-3-3-3-|
D|-5-5-5-5-8/10--6-|-(6)-6-6-6-6-6-6-6-|-6-6-6-6-8/10--5-|-(5)-5-5-5-5-3-3-3-|
A|-3-3-3-3-6//8--6-|-(6)-6-6-6-6-6-6-6-|-6-6-6-6-6//8--3-|-(3)-3-3-3-3-1-1-1-|
E|---------------4-|-(4)-4-4-4-4-4-4-4-|-4-4-4-4---------|-------------------|


[Pre-Chorus]

e|----------------|-------------------|----------------|-------------------|
B|----------------|-------------------|----------------|-------------------|
G|----------------|-------------------|----------------|-------------------|
D|-7-7-7-7-7-5--3-|-(3)-3-3-3-3-3-3-3-|-3-3-3-3---5--7-|-(7)-7-7-7-7-7-7-7-|
A|-7-7-7-7-7-5--3-|-(3)-3-3-3-3-3-3-3-|-3-3-3-3-2-5--7-|-(7)-7-7-7-7-7-7-7-|
E|-5-5-5-5-5-3--1-|-(1)-1-1-1-1-1-1-1-|-1-1-1-1-0-3--5-|-(5)-5-5-5-5-5-5-5-|


[Chorus]

e|-------0--------|---------0-------|---------0-----0-|-(0)-0---0-----|
B|---3------3-----|-----3------3----|-----3-----3---8-|-(8)-8--10-----|
G|-----2----------|-------0------0--|-------0-----0-7-|-(7)-7---9-----|
D|-0----------2/3-|-(3)-------------|-3h5-----------5-|-(5)-5---7-----|
A|----------------|-----------------|-----------------|---------------|
E|----------------|-----------------|-----------------|---------------|


e|---------------|-----------|
B|---------------|-----------|
G|---------------|-----------|
D|-7-7-7-5--5--9-|--9--7-----|
A|-7-7-7-5--5--9-|--9--7-----|
E|-5-5-5-3--3--7-|--7--5-----|


[Solo]

  Tempo = 166 bpm
e|-------------------|---------------------------------|
B|-------------------|---------------------------------|
G|-2b4===2-2-2-2-2r2-|-0h2p0---0-----------------------|
D|-------------------|-------2---2p0---0h2p0---0-------|
A|-------------------|---------------2-------2---2p0---|
E|-------------------|-------------------------------3-|


e|---------------------------------|----------------|
B|---------------------------------|----------------|
G|-2-4p2p0-4-5p4p0-5-7p5p0-7-9p7p0-|----7-9---------|
D|---------------------------------|-/9-----8b9~~~--|
A|---------------------------------|----------------|
E|---------------------------------|----------------|


e|---------------------|------------------------------7h10-|
B|-5----5----5---5-----|---------------7h8p7-----8h10------|
G|-7b9--7b9--7b9-7b9---|-9p7h9p7---7h9-------9p7-----------|
D|---------------------|---------9-------------------------|
A|---------------------|-----------------------------------|
E|---------------------|-----------------------------------|


e|-15p12----12-------------------------------------|--------------------------|
B|-------15----15p12----12-------------------------|-----------------------15-|
G|-------------------15----14p12-14h15p14p12-14b16-|-(14)-14-12-14b16~~~------|
D|-------------------------------------------------|--------------------------|
A|-------------------------------------------------|--------------------------|
E|-------------------------------------------------|--------------------------|


e|---------15-17b19-17-15----------|----------------------------|
B|-(15)-17----------------17-17b19-|-(17)-17-15-----------------|
G|---------------------------------|------------14b16--14-12-11-|
D|---------------------------------|----------------------------|
A|---------------------------------|----------------------------|
E|---------------------------------|----------------------------|


e|-------------------------|----15-17-17b19----20b22-|
B|-------------------12-15/|/17----------------------|
G|-(11)-12--11-12-14-------|-------------------------|
D|-------------------------|-------------------------|
A|-------------------------|-------------------------|
E|-------------------------|-------------------------|


e|-(20)--20-20-20-20--20r18-|-17--------------|-------------------|---------|
B|--------------------------|----18-----------|--17-18-17-----/20-|-(20)~~~-|
G|--------------------------|--------17/19~~~-|-----------19------|---------|
D|--------------------------|-----------------|-------------------|---------|
A|--------------------------|-----------------|-------------------|---------|
E|--------------------------|-----------------|-------------------|---------|


e|--------------------|-------------------|-----------|
B|---17-18-17-----/22-|-(22)--------20h22-|-20~~~-----|
G|------------19------|-------------------|-----------|
D|--------------------|-------------------|-----------|
A|--------------------|-------------------|-----------|
E|--------------------|-------------------|-----------|


[4:14]

   Acoustic
e|----------------|------------------|---------------|------------------|
B|-5--5-5-3-3-3-1-|-(1)--1-1-1-1-1-1-|-1--1-1-1-3--5-|-(5)--5-5-5-5-5-5-|
G|-5--5-5-4-4-4-2-|-(2)--2-2-2-2-2-2-|-2--2-2-2-4--5-|-(5)--5-5-5-5-5-5-|
D|-7--7-7-5-5-5-3-|-(3)--3-3-3-3-3-3-|-3--3-3-3-5--7-|-(7)--7-7-7-7-7-7-|
A|-7--7-7-5-5-5-3-|-(3)--3-3-3-3-3-3-|-3--3-3-3-5--7-|-(7)--7-7-7-7-7-7-|
E|-5--5-5-3-3-3-1-|-(1)--1-1-1-1-1-1-|-1--1-1-1-3--5-|-(5)--5-5-5-5-5-5-|


[4:25]

   Gtr 1
e|-----------------|-----------------|
B|-----------------|-----------------|
G|-----------------|-----------------|
D|---------------7-|-7-7-7-7-7-------|
A|-0-0-0-0-0-3-5---|-----------5-3-0-|
E|-----------------|-----------------|

   Gtr 2 (Stereo Right)
e|-----------------|-----------------|
B|-----------------|-----------------|
G|---------------5-|-5-5-5-5-5-------|
D|-----------2-3---|-----------3-2---|
A|-3-3-3-3-3-------|---------------3-|
E|-----------------|-----------------|

   Gtr 3 (Stereo Left)
e|-----------------|-----------------|
B|-----------------|-----------------|
G|---------------9-|-9-9-9-9-9-------|
D|-2-2-2-2-2-5-7---|-----------7-5-2-|
A|-----------------|-----------------|
E|-----------------|-----------------|


[Ending]

   Gtr 1
e|-----------------|-------------------|----------------|--------|
B|-----------------|-------------------|--------------1-|-(1)----|
G|-----------------|-------------------|--------------0-|-(0)----|
D|---------------7-|--7--7-7-7-7-------|--------------2-|-(2)----|
A|-0-0-0-0-0-3-5---|-------------5-3-0-|-0-0-0-0-0-3--3-|-(3)----|
E|-----------------|-------------------|----------------|--------|
 |
 | Acoustic
e|-----------------|-------------------|----------------|--------|
B|-5---5-5-3-3-3-1-|-(1)---1-1-1-1-1-1-|-1---1-1-1-3--1-|-(1)----|
G|-5---5-5-4-4-4-2-|-(2)---2-2-2-2-2-2-|-2---2-2-2-4--0-|-(0)----|
D|-7---7-7-5-5-5-3-|-(3)---3-3-3-3-3-3-|-3---3-3-3-5--2-|-(2)----|
A|-7---7-7-5-5-5-3-|-(3)---3-3-3-3-3-3-|-3---3-3-3-5--3-|-(3)----|
E|-5---5-5-3-3-3-1-|-(1)---1-1-1-1-1-1-|-1---1-1-1-3----|--------|


***********************************

|(n)  Ghost note
| /   Slide up
| \   Slide down
| h   Hummer-on
| p   Pull-off
| b   Bend
| ~   Vibrato

*********************************** 

            
            
Suggest correction
Creating personal tab
Creating personal tab
You can edit any tab online and save it as your Personal.

You can edit, replace or remove any tab part or add personal notes – all changes will be seen only by you.

Personal tabs can be accessed anytime from any device, even offline.
Learn more »
comments
print report bad tab
guest
You may want to rate the tab now too:
select rating
Wanna post a correction for this tab? Suggest correction