Oops, an error
Loading. Please wait.

Ondskapens Galakse tab

version 1
version 1

Whole song

619 views 3 this week
no commentswrite comment
1 2 3 4 5
1 last vote to show rating
add to favorites
×
Save as Personal and add changes to this tab that will be seen only by you. Learn more ›
×
You can save this tab as Personal to edit and correct it or add notes. All changes will be seen only by you. Learn more »
launch autoscroll
font size
0
reset
how to read this tab
guitar tuner
edit
Autoscroll
slow
fast
+/-
esc
set tempo
stop
Author
[Intro]

Acoustic guitar - Right channel

    Am

e||---------------------------------------||
B||-----------0--1--3-----3-3-3--1--0-----||
G||--------2-----------0---------------0--||
D||-----2---------------------------------|| x 4
A||--0------------------------------------||
E||---------------------------------------||

Electric rythm guitar 1 - Left channel

e||---------------------------------------||
B||-----------0--1--3-----3-3-3--1--0-----||
G||--------2-----------0---------------0--||
D||-----2---------------------------------|| x 8
A||--0------------------------------------||
E||---------------------------------------||

00:08

Lead guitar


e|--12------------------|
B|------12pb13bd12--10--|
G|----------------------|
D|----------------------|
A|----------------------|
E|----------------------|

00:17

Electric rythm guitar 2

e|--------------------------------------------------------------|
B|--------------------------------------------------------------|
G|---------------9-9--9--7-7-----------------------9-9--9--7-7--|
D|---------------7-7--7--5-5-----------------------7-7--7--5-5--|
A|--0-0-0-0-0-0----------0-0--0-0-0-0-0-0-0-0-0-0----------0-0--|
E|--------------------------------------------------------------|
    * * * * * *               * * * * * * * * * *

e|--------------------------------------------------------------|
B|--------------------------------------------------------------|
G|-----------7---------------9-9--9--7-7------------------------|
D|-------7h9-----------------7-7--7--5-5------------------------|
A|--0-0---------0-0-0-0-0-0----------0-0--0-0-0-0-0-0-0-0-0-0---|
E|--------------------------------------------------------------|
    * *         * * * * * *               * * * * * * * * * *

e|---------------------|
B|---------------------|
G|--7-7--7--7----------|
D|--5-5--4--4--2-------|
A|----------------3lb--|
E|---------------------|

[Verse]

00:34

Electric rythm guitar 1

e|--------------------------------------------------------------|
B|--------------------------------------------------------------|
G|---------------9-9--9--7-7-----------------------9-9--9--7-7--|
D|---------------7-7--7--5-5-----------------------7-7--7--5-5--|
A|--0-0-0-0-0-0----------0-0--0-0-0-0-0-0-0-0-0-0----------0-0--|
E|--------------------------------------------------------------|
    * * * * * *               * * * * * * * * * *

e|--------------------------------------------------------------|
B|--------------------------------------------------------------|
G|-----------7---------------9-9--9--7-7------------------------|
D|-------7h9-----------------7-7--7--5-5------------------------|
A|--0-0---------0-0-0-0-0-0----------0-0--0-0-0-0-0-0-0-0-0-0---|
E|--------------------------------------------------------------|
    * *         * * * * * *               * * * * * * * * * *

e|-----------------------|
B|-----------------------|
G|--7-7--7--7-7----------|
D|--5-5--5--4-4--2-------|
A|------------------3lb--|
E|-----------------------|

e||---------------------------------------||
B||-----------0--1--3-----3-3-3--1--0-----||
G||--------2-----------0---------------0--||
D||-----2---------------------------------|| x 2
A||--0------------------------------------||
E||---------------------------------------||

e|--------------------------------------------------------------|
B|--------------------------------------------------------------|
G|---------------9-9--9--7-7-----------------------9-9--9--7-7--|
D|---------------7-7--7--5-5-----------------------7-7--7--5-5--|
A|--0-0-0-0-0-0----------0-0--0-0-0-0-0-0-0-0-0-0----------0-0--|
E|--------------------------------------------------------------|
    * * * * * *               * * * * * * * * * *

e|--------------------------------------------------------------|
B|--------------------------------------------------------------|
G|-----------7---------------9-9--9--7-7------------------------|
D|-------7h9-----------------7-7--7--5-5------------------------|
A|--0-0---------0-0-0-0-0-0----------0-0--0-0-0-0-0-0-0-0-0-0---|
E|--------------------------------------------------------------|
    * *         * * * * * *               * * * * * * * * * *

e|----------------------------|
B|----------------------------|
G|--7-7--7--7-7---------------|
D|--5-5--5--4-4-------2-------|
A|---------------0-0-----3lb--|
E|----------------------------|

[Chorus]

01:15

e|-----------------------------------------------------------------|
B|-----------------------------------------------------------------|
G|-----------------12--12--12-12-----------------12------14-14-14--|
D|-----------------12--12--12-12-----------------12------14-14-14--|
A|--7--7-7--9--10-----------------7--7-7--9--10------12------------|
E|--5--5-5--7--8------------------5--5-5--7--8-------10------------|

e|-----------------------------------------------------------------|
B|-----------------------------------------------------------------|
G|-----------------12--12--12-12-----------------12------14-14-14--|
D|-----------------12--12--12-12-----------------12------14-14-14--|
A|--7--7-7--9--10-----------------7--7-7--9--10------12------------|
E|--5--5-5--7--8------------------5--5-5--7--8-------10------------|

[Verse]

Electric rythm guitar 1

01:31

e||---------------------------------------||
B||-----------0--1--3-----3-3-3--1--0-----||
G||--2-----2-----------0---------------0--||
D||-----2---------------------------------|| x 4
A||---------------------------------------||
E||---------------------------------------||

Electric rythm guitar 1

e|--------------------------------------------------------------|
B|--------------------------------------------------------------|
G|---------------9-9--9--7-7-----------------------9-9--9--7-7--|
D|---------------7-7--7--5-5-----------------------7-7--7--5-5--|
A|--0-0-0-0-0-0----------0-0--0-0-0-0-0-0-0-0-0-0----------0-0--|
E|--------------------------------------------------------------|
    * * * * * *               * * * * * * * * * *

e|--------------------------------------------------------------|
B|--------------------------------------------------------------|
G|-----------7---------------9-9--9--7-7------------------------|
D|-------7h9-----------------7-7--7--5-5------------------------|
A|--0-0---------0-0-0-0-0-0----------0-0--0-0-0-0-0-0-0-0-0-0---|
E|--------------------------------------------------------------|
    * *         * * * * * *               * * * * * * * * * *

e|----------------------------|
B|----------------------------|
G|--7-7--7--7-7---------------|
D|--5-5--5--4-4-------2-------|
A|---------------0-0-----3lb--|
E|----------------------------|

[Chorus]

01:48

e|-----------------------------------------------------------------|
B|-----------------------------------------------------------------|
G|-----------------12--12--12-12-----------------12------14-14-14--|
D|-----------------12--12--12-12-----------------12------14-14-14--|
A|--7--7-7--9--10-----------------7--7-7--9--10------12------------|
E|--5--5-5--7--8------------------5--5-5--7--8-------10------------|

e|-----------------------------------------------------------------|
B|-----------------------------------------------------------------|
G|-----------------12--12--12-12-----------------12------14-14-14--|
D|-----------------12--12--12-12-----------------12------14-14-14--|
A|--7--7-7--9--10-----------------7--7-7--9--10------12------------|
E|--5--5-5--7--8------------------5--5-5--7--8-------10------------|


[Break]

02:04

Acoustic rythm guitar

Showing only the chords, listen for the exact strum-patterns

e|--0--0--0--0--0----0--0--3-----0--|
B|--1--1--1--1--3----1--1--3--3--1--|
G|--2--2--2--1--0----2--2--0--2--0--|
D|--3--2--3--2--4----3--2--0--0--2--|
A|-----0-----0--5-------0--3-----3--|
E|-------------------------2--------|

Lead guitar
 
e|--------------------------------------------------------|
B|-----------------8----8----8------------------8---------|
G|--------9---------------------------9-------------------|
D|--7--7-----9--10---10---10----7--7-----9--10-----10s12--|
A|--------------------------------------------------------|
E|--------------------------------------------------------|

e|--------------------------------------------------------|
B|--10----------------------8----8----8---------8--8--8---|
G|----------------9---------------------------7----7--7---|
D|------12--7--7-----9--10----10---10---10--9------9--9---|
A|--------------------------------------------------------|
E|--------------------------------------------------------|

e|--------------------|
B|--7-7-7-7-7-7-7--5--|
G|--7-7-7-7-7-7-7--5--|
D|--7-7-7-7-7-7-7--5--|
A|--5-5-5-5-5-5-5--3--|
E|--------------------|

[Verse]

02:20

e||---------------------------------------||
B||-----------0--1--3-----3-3-3--1--0-----||
G||--2-----2-----------0---------------0--||
D||-----2---------------------------------|| x 2
A||---------------------------------------||
E||---------------------------------------||

e|--------------------------------------------------------------|
B|--------------------------------------------------------------|
G|---------------9-9--9--7-7-----------------------9-9--9--7-7--|
D|---------------7-7--7--5-5-----------------------7-7--7--5-5--|
A|--0-0-0-0-0-0----------0-0--0-0-0-0-0-0-0-0-0-0----------0-0--|
E|--------------------------------------------------------------|
    * * * * * *               * * * * * * * * * *

e|--------------------------------------------------------------|
B|--------------------------------------------------------------|
G|-----------7---------------9-9--9--7-7------------------------|
D|-------7h9-----------------7-7--7--5-5------------------------|
A|--0-0---------0-0-0-0-0-0----------0-0--0-0-0-0-0-0-0-0-0-0---|
E|--------------------------------------------------------------|
    * *         * * * * * *               * * * * * * * * * *

e|----------------------------|
B|----------------------------|
G|--7-7--7--7-7---------------|
D|--5-5--5--4-4-------2-------|
A|---------------0-0-----3lb--|
E|----------------------------|

[Chorus]

02:45

e|-----------------------------------------------------------------|
B|-----------------------------------------------------------------|
G|-----------------12--12--12-12-----------------12------14-14-14--|
D|-----------------12--12--12-12-----------------12------14-14-14--|
A|--7--7-7--9--10-----------------7--7-7--9--10------12------------|
E|--5--5-5--7--8------------------5--5-5--7--8-------10------------|

e|-----------------------------------------------------------------|
B|-----------------------------------------------------------------|
G|-----------------12--12--12-12-----------------12------14-14-14--|
D|-----------------12--12--12-12-----------------12------14-14-14--|
A|--7--7-7--9--10-----------------7--7-7--9--10------12------------|
E|--5--5-5--7--8------------------5--5-5--7--8-------10------------|

[Break 1, Chorus with other rythm]

03:00

e|-----------------------------------------------------------------|
B|-----------------------------------------------------------------|
G|-----------------12--12--12-12-----------------12------14-14-14--|
D|-----------------12--12--12-12-----------------12------14-14-14--|
A|--7--7-7--9--10-----------------7--7-7--9--10------12------------|
E|--5--5-5--7--8------------------5--5-5--7--8-------10------------|

e|-----------------------------------------------------------------|
B|-----------------------------------------------------------------|
G|-----------------12--12--12-12-----------------12------14-14-14--|
D|-----------------12--12--12-12-----------------12------14-14-14--|
A|--7--7-7--9--10-----------------7--7-7--9--10------12------------|
E|--5--5-5--7--8------------------5--5-5--7--8-------10------------|

[Break 2]

03:15

Acoustic rythm guitar

Showing only the chords, listen for the exact strum-patterns

e|--0--0--0--0--0----0--0--3-----0--|
B|--1--1--1--1--3----1--1--3--3--1--|
G|--2--2--2--1--0----2--2--0--2--0--|
D|--3--2--3--2--4----3--2--0--0--2--|
A|-----0-----0--5-------0--3-----3--|
E|-------------------------2--------|

e|--0--0--0--0--0----0--0--3--|
B|--1--1--1--1--3----1--1--3--|
G|--2--2--2--1--0----2--2--0--|
D|--3--2--3--2--4----3--2--0--|
A|-----0-----0--5-------0--3--|
E|-------------------------2--|

Lead guitar
 
e|--------------------------------------------------------|
B|-----------------8----8----8------------------8---------|
G|--------9---------------------------9-------------------|
D|--7--7-----9--10---10---10----7--7-----9--10-----10s12--|
A|--------------------------------------------------------|
E|--------------------------------------------------------|

e|--------------------------------------------------------|
B|--10----------------------8----8----8---------8--8--8---|
G|----------------9---------------------------7----7--7---|
D|------12--7--7-----9--10----10---10---10--9------9--9---|
A|--------------------------------------------------------|
E|--------------------------------------------------------|

e|--------------------|
B|--7-7-7-7-7-7-7--5--|
G|--7-7-7-7-7-7-7--5--|
D|--7-7-7-7-7-7-7--5--|
A|--5-5-5-5-5-5-5--3--|
E|--------------------|

e|--------------------------------------------------------|
B|-----------------8----8----8------------------8---------|
G|--------9---------------------------9-------------------|
D|--7--7-----9--10---10---10----7--7-----9--10-----10s12--|
A|--------------------------------------------------------|
E|--------------------------------------------------------|

e|-------------------------------------------------|
B|--10----------------------8----8----8---------8--|
G|----------------9---------------------------7----|
D|------12--7--7-----9--10----10---10---10--9------|
A|-------------------------------------------------|
E|-------------------------------------------------|

e|-------------|
B|--8-8-8-8-8--|
G|--7-7-7-7-7--|
D|--9-9-9-9-9--|
A|-------------|
E|-------------|

[Break 3]

03:45

Rythm guitar 1


e|-----------------------------------------------------|
B|-----------------8-------------------8-------10------|
G|--------9-------------------9------------------------|
D|--7--7-----9--10------7--7-----9--10---10s12-----12--|
A|-----------------------------------------------------|
E|-----------------------------------------------------|

e||--------------------------------------------------------------||
B||-----------------8----8----8-------------------8-------10-----||
G||--------9----------------------------9------------------------||
D||--7--7-----9--10---10---10---10-7--7-----9--10---10s12----12--|| x 7
A||--------------------------------------------------------------||
E||--------------------------------------------------------------||

Rythm guitar 2

e|--------------------------------------------------------------|
B|--------------------------------------------------------------|
G|---------------------------------------------------14-14-14---|
D|--------9---------12----------9---------12---------14-14-14---|
A|--0--0-----9--10--------0--0-----9--10------10s12-------------|
E|--------------------------------------------------------------|

e||-------------------------------------------------------------||
B||-------------------------------------------------------------||
G||---------------------------------------------------14-14-14--||
D||--------9---------12---------9---------12----------14-14-14--|| x 7
A||--0--7-----9--10-------0--0-----9--10------10s12-------------||
E||-------------------------------------------------------------||

[Break 4]

04:53

Rythm guitar 1

e||-------------------------------||
B||-------------------------------||
G||-------------------------------||
D||----------------5-5-5-5-5-5-5--|| x 7
A||--7--7-7--9--10-3-3-3-3-3-3-3--||
E||--5--5-5--7--8--4-4-4-4-4-4-4--||

e|-------------------------------|
B|-------------------------------|
G|-------------------------------|
D|----------------5-5-5-5-5-5-5--| 
A|--7--7-7--9--10-3-3-3-3-3-3-3--|
E|--5--5-5--7--8--4-4-4-4-4-4-4--|


************************************

| (n)  Ghost note
| h    Hammer-on
| p    Pull-off
| b    Bend
| bd   Bend down
| pb   Pre-bend
| lb   Light bend
| ~    Vibrato
| s    Slide
| *    Palm mute 

************************************

            
            
Suggest correction
Creating personal tab
Creating personal tab
You can edit any tab online and save it as your Personal.

You can edit, replace or remove any tab part or add personal notes – all changes will be seen only by you.

Personal tabs can be accessed anytime from any device, even offline.
Learn more »
Give kudos to tab author, rate the tab!
1 2 3 4 5
comments
print report bad tab
guest
You may want to rate the tab now too:
select rating
Wanna post a correction for this tab? Suggest correction