Oops, an error
Loading. Please wait.

Ordsmedar Av Rang tab

version 2
version 2

Whole song

151 views 3 this week
no commentswrite comment
1 2 3 4 5
3 more votes to show rating
add to favorites
×
Save as Personal and add changes to this tab that will be seen only by you. Learn more ›
×
You can save this tab as Personal to edit and correct it or add notes. All changes will be seen only by you. Learn more »
launch autoscroll
font size
0
reset
how to read this tab
guitar tuner
edit
Autoscroll
slow
fast
+/-
esc
set tempo
stop
Author
[Intro]

Guitar 1

e||--12-12-12-12-12-12-12-12-12-12-12-12--14-14--10-10--||
B||-----------------------------------------------------||
G||--12-12-12-12-12-12-12-12-12-12-12-12--14-14--11-11--||
D||-----------------------------------------------------|| x 8
A||-----------------------------------------------------||
E||-----------------------------------------------------||


00:16

Guitar 2

e|-----------------------------------------------------------------|
B|-----------------------------------------------------------------|
G|-----------------------------------------------------------------|
D|--5-5-5-5-5-5-5-5--7-7-------------------------------------------|
A|------------------------5-5-5-5--0-0-0-0-0--7-7-7----------------|
E|-----------------------------------------------------------------|

e|-----------------------------------------------------------------|
B|-----------------------------------------------------------------|
G|-----------------------------------------------------------------|
D|-------5-5---------------5-5-5-5-5-5-5-5--7-7--------------------|
A|--7-7-------7-7-7-7-7-7-----------------------5-5-5-5--0-0-0-0---|
E|-----------------------------------------------------------------|

Guitar 3
  
Guitar 3 is actually playing the chorus riff here. Pay attention
and you'll hear it along with the riffs of guitar 1 & 2.

00:21

e||-------------------------------------------------------|
B||-------------------------------------------------------|
G||-------------------------------------------------------|
D||--9-9-9-9-9--------------------------------------------|
A||--7-7-7-7-7--10--10--10-10-10-10--10--10--10-10-10-10--|
E||-------------7---8---8--8--8--8---7---8---8--8--8--8---|

e|---------------------||
B|---------------------||
G|---------------------||
D|---------------------|| x 2
A|--10--12-12--7--7-7--||
E|--7---10-10--5--5-5--||


[Verse]

00:28

Just hold your pointing finger barred on 
the 7th fret from the Em, lift your other fingers
and strum the four strings on the 7th fret for
the D/E-chord.
           
e||--------------||
B||--------8--7--||
G||--------9--7--||
D||--------9--7--|| x 3
A||--------7--7--||
E||--0--0--------||

00:38

e|-----------------------------------------------|
B|-----------------------------------------------|
G|-----------------------------------------------|
D|--12-12-12-12-12-12-12-12--8-8-8-8-8-8-8-8-----|
A|--10-10-10-10-10-10-10-10--6-6-6-6-6-6-6-6--2--|
E|--------------------------------------------0--|

00:46

Guitar 1

You often also hear the high B sometimes played 
with both chords.

e|-------(7)(7)---(7)(7)-------------------------|
B|--------8--7-----8--7--------------------------|
G|--------9--7-----9--7--------------------------|
D|--------9--7-----9--7--7h9p7-------------------| x 4
A|--------7--7-----7--7---------10--9--7------7--|
E|--0--0--------0-------------------------10-----| 

00:58

Guitar 2

e|-------(7)(7)---(7)(7)----------------------|
B|--------8--7-----8--7---7h8-----------------|
G|--------9--7-----9--7--------9--7-----------|
D|--------9--7-----9--7--------------9--7--9--|
A|--------7--7-----7--7-----------------------|
E|--0--0--------0-----------------------------|
  
01:00


[Verse]

e|---------------------------------------|
B|---------------------------------------|
G|---------------------------------------|
D|-------9-7-------9-7-------------------| x 2
A|-------7-5-------7-5-------------------|
E|--0-0-------0-0-------0-0-0-0-0-0-0-0--|
    * *       * *       * * * * * * * *

e|-----------------------------------------|
B|-----------------------------------------|
G|-----------------------------------------|
D|-12-12-12-12-12-12-12-12-8-8-8-8-8-8-8-8-|
A|-10-10-10-10-10-10-10-10-6-6-6-6-6-6-6-6-|
E|-----------------------------------------|

e|-------(7)(7)---(7)(7)-------------------------|
B|--------8--7-----8--7--------------------------|
G|--------9--7-----9--7--------------------------|
D|--------9--7-----9--7--7h9p7-------------------| 
A|--------7--7-----7--7---------10--9--7------7--|
E|--0--0--------0-------------------------10-----| 


01:14


[Chorus]

e||-------------------------------------------------------|
B||-------------------------------------------------------|
G||-------------------------------------------------------|
D||--9-9-9-9-9--------------------------------------------|
A||--7-7-7-7-7--10--10--10-10-10-10--10--10--10-10-10-10--|
E||-------------7---8---8--8--8--8---7---8---8--8--8--8---|

e|---------------------||
B|---------------------||
G|---------------------||
D|---------------------|| x 2
A|--10--12-12--7--7-7--||
E|--7---10-10--5--5-5--||


01:24

Guitar 2 in chorus

e|----------------------------------------------|
B|----------------------------------------------|
G|------------------------------7--9--7~--------|
D|----------------5--7--5--7s9------------9--9--|
A|--3--5--3--5s7--------------------------------|
E|----------------------------------------------|

The last half of the chorus is really fattened  
up with "open chords". High E is open on all chords.

01:28

Guitar 1 + 2

e|--0-0-0-0-0-0--0-0--0-0-0-0-0-0--0-0--0-0-0-0-0-0--0-0--|
B|--8-8-8-8-8-8--3-3--0-0-0-0-0-0--3-3--0-0-0-0-0-0--3-3--|
G|--9-9-9-9-9-9--4-4--5-5-5-5-5-5--4-4--5-5-5-5-5-5--4-4--|
D|--9-9-9-9-9-9--4-4--5-5-5-5-5-5--4-4--5-5-5-5-5-5--4-4--|
A|--7-7-7-7-7-7--2-2--3-3-3-3-3-3--2-2--3-3-3-3-3-3--2-2--|
E|--------------------------------------------------------|
e|--0-0-0-0--0-0-0-0--|
B|--5-5-5-5--0-0-0-0--|
G|--5-5-5-5--2-2-2-2--|
D|--5-5-5-5--2-2-2-2--|
A|--3-3-3-3--0-0-0-0--|
E|--------------------|

e|--0-0-0-0-0-0--0-0--0-0-0-0-0-0--0-0--0-0-0-0-0-0--0-0--|
B|--8-8-8-8-8-8--3-3--0-0-0-0-0-0--3-3--0-0-0-0-0-0--3-3--|
G|--9-9-9-9-9-9--4-4--5-5-5-5-5-5--4-4--5-5-5-5-5-5--4-4--|
D|--9-9-9-9-9-9--4-4--5-5-5-5-5-5--4-4--5-5-5-5-5-5--4-4--|
A|--7-7-7-7-7-7--2-2--3-3-3-3-3-3--2-2--3-3-3-3-3-3--2-2--|
E|--------------------------------------------------------|
e|--0----0--|
B|--5----0--|
G|--5----2--|
D|--5----2--|
A|--3----0--|
E|----------|

01:42


[Verse]

Guitar 1

e||-------(7)(7)---(7)(7)-------------------------||
B||--------8--7-----8--7--------------------------||
G||--------9--7-----9--7--------------------------||
D||--------9--7-----9--7--7h9p7-------------------|| x 2 
A||--------7--7-----7--7---------10--9--7------7--||
E||--0--0--------0-------------------------10-----|| 

01:48

Guitar 2

e|-------(7)(7)---(7)(7)----------------------|
B|--------8--7-----8--7---7h8-----------------|
G|--------9--7-----9--7--------9--7-----------|
D|--------9--7-----9--7--------------9--7--9--|
A|--------7--7-----7--7-----------------------|
E|--0--0--------0-----------------------------|


01:49

Guitar 1 + 2

e|---------------------------------------|
B|---------------------------------------|
G|---------------------------------------|
D|-------9-7-------9-7-------------------| x 2
A|-------7-5-------7-5-------------------|
E|--0-0-------0-0-------0-0-0-0-0-0-0-0--|
    * *       * *       * * * * * * * *

01:57

Guitar 1

e|----------------------------------------------------|
B|----------------------------------------------------|
G|----------------------------------------------------|
D|--5-5-5-5-5-5-5-5-5-5-5-5-5-5-5-5-------------------|
A|--3-3-3-3-3-3-3-3-3-3-3-3-3-3-3-3--7-7-7-7-7-7-7-7--|
E|--3-3-3-3-3-3-3-3-3-3-3-3-3-3-3-3--5-5-5-5-5-5-5-5--|

e|------------------|
B|------------------|
G|------------------|
D|-----------7-7-7--|
A|--5-5-5-5--5-5-5--|
E|--3-3-3-3--5-5-5--|

Guitar 2

e|--------------------------------------------------|
B|--------------------------------------------------|
G|--------------------------------------------------|
D|--7h9--7------7h9--7--9--7------------------------|
A|----------10----------------10--9--7------7-------|
E|--------------------------------------10----------|

e|--------------------------------------------------|
B|--------------------------------------------------|
G|---------------------------9--7-------------------|
D|-------7h9--7------7h9--7--------9--7-------------|
A|--0-0----------10----------------------10--9--10--|
E|--------------------------------------------------|

02:03

e||-------(7)(7)---(7)(7)-------------------------||
B||--------8--7-----8--7--------------------------||
G||--------9--7-----9--7--------------------------||
D||--------9--7-----9--7--7h9p7-------------------|| x 2 
A||--------7--7-----7--7---------10--9--7------7--||
E||--0--0--------0-------------------------10-----|| 


[Break]

02:11

Rythm guitar 1 + Acoustic guitar at 02:25
  
e||-----------------------------------------------------------|
B||--------------3--------------------3--------------3--------|
G||--------0--------0-----------0--------0-----0--------0-----|
D||-----2-----2--------2--0-----------------------------------|
A||--------------------------3-----3--------3-----3--------3--|
E||--0--------------------------------------------------------|

e|--------------------0--------------||
B|--3--------------------------------||
G|-----0-----0-----2-----------2-----||
D|--------------0-----------2-----2--|| x 3
A|--------3--------------0-----------||
E|-----------------------------------||

02:33
  
The last E-note is not played the fourth and last time.

e|-----------------------------------------------------------|
B|--------------3--------------------3--------------3--------|
G|--------0--------0-----------0--------0-----0--------0-----|
D|-----2-----2--------2--0-----------------------------------|
A|--------------------------3-----3--------3-----3--------3--|
E|--0--------------------------------------------------------|

e|--------------------0-----------|
B|--3-----------------------------|
G|-----0-----0-----2-----------2--|
D|--------------0-----------2-----|
A|--------3--------------0--------|
E|--------------------------------|

02:39


[Chorus]

Guitar 1 + 2

e|--0-0-0-0-0-0--0-0--0-0-0-0-0-0--0-0--0-0-0-0-0-0--0-0--|
B|--8-8-8-8-8-8--3-3--0-0-0-0-0-0--3-3--0-0-0-0-0-0--3-3--|
G|--9-9-9-9-9-9--4-4--5-5-5-5-5-5--4-4--5-5-5-5-5-5--4-4--|
D|--9-9-9-9-9-9--4-4--5-5-5-5-5-5--4-4--5-5-5-5-5-5--4-4--|
A|--7-7-7-7-7-7--2-2--3-3-3-3-3-3--2-2--3-3-3-3-3-3--2-2--|
E|--------------------------------------------------------|
e|--0-0-0-0--0-0-0-0--|
B|--5-5-5-5--0-0-0-0--|
G|--5-5-5-5--2-2-2-2--|
D|--5-5-5-5--2-2-2-2--|
A|--3-3-3-3--0-0-0-0--|
E|--------------------|

e|--0-0-0-0-0-0--0-0--0-0-0-0-0-0--0-0--0-0-0-0-0-0--0-0--|
B|--8-8-8-8-8-8--3-3--0-0-0-0-0-0--3-3--0-0-0-0-0-0--3-3--|
G|--9-9-9-9-9-9--4-4--5-5-5-5-5-5--4-4--5-5-5-5-5-5--4-4--|
D|--9-9-9-9-9-9--4-4--5-5-5-5-5-5--4-4--5-5-5-5-5-5--4-4--|
A|--7-7-7-7-7-7--2-2--3-3-3-3-3-3--2-2--3-3-3-3-3-3--2-2--|
E|--------------------------------------------------------|
e|--0----0--|
B|--5----2--|
G|--5----2--|
D|--5----2--|
A|--3----0--|
E|----------|

02:54


[Guitar solo]

Rythm guitar

Strum these chords as played during the solo

e|--0----------0----------0--|
B|--8----------0----------0--|
G|--9----------7----------2--|
D|--9----------7----------2--|
A|--7----------5----------0--|
E|---------------------------|

Solo guitar

e|-----------------------------------------------------------|
B|-----------------------------------------------------------|
G|-----------------------------------------------------------|
D|------------------------------5h7--7s9--9--9s7--5--7-------|
A|--5h7-----7p5-----5h7--7~--7--------------------------5h7--|
E|-------0-------7-------------------------------------------|

e|-----------------------------------------------------------|
B|-----------------------------------------------------------|
G|--7h9--7----------------7--7h9--9--9p7-------7h9--9b11--9--|
D|----------5--7--7--7h9------------------7h9----------------|
A|-----------------------------------------------------------|
E|-----------------------------------------------------------|

e|-----------------------------------------------------------|
B|-----------------------------------------------------------|
G|-----------------------------------------------------------|
D|--7--7h9------7-7------7-7------7-7-------7--9--9~---------|
A|----------7h9------7h9------7h9------7h9-------------------|
E|-----------------------------------------------------------|

e|-----------------------------------------10----------------|
B|-------8h10--10b12--10b12--10--8--10b12------10--8--8h10---|
G|--7h9------------------------------------------------------|
D|-----------------------------------------------------------|
A|-----------------------------------------------------------|
E|-----------------------------------------------------------|

e|--10h12--10------------------------------------------------|
B|-------------8h10--8-------8-----------10b12bd10--8--10b12-|
G|----------------------7h9-----9--7--6----------------------|
D|-----------------------------------------------------------|
A|-----------------------------------------------------------|
E|-----------------------------------------------------------|


e|---------10------------------------------------------------|
B|--10b12------10b12bd10--10b12------------------------------|
G|-------------------------------9-9-9--9p7------------------|
D|-------------------------------------------7h9--9--7--5----|
A|-----------------------------------------------------------|
E|-----------------------------------------------------------|

e|-------------------|
B|-------------------|
G|-------------------|
D|--7--7s9--7s9--11--|
A|-------------------|
E|-------------------|

03:22


[Chorus]

e||-------------------------------------------------------|
B||-------------------------------------------------------|
G||-------------------------------------------------------|
D||--9-9-9-9-9--------------------------------------------|
A||--7-7-7-7-7--10--10--10-10-10-10--10--10--10-10-10-10--|
E||-------------7---8---8--8--8--8---7---8---8--8--8--8---|

e|---------------------||
B|---------------------||
G|---------------------||
D|---------------------|| x 2
A|--10--12-12--7--7-7--||
E|--7---10-10--5--5-5--||


e|---------------------------------------------------------------|
B|---------------------------------------------------------------|
G|---------------------------------------------------------------|
D|--9-9-9-9-9--7-7-----------------------------------------------|
A|--7-7-7-7-7--5-5--10-10-10-10-10-10--10-10--10-10-10-10-10-10--|
E|------------------8--8--8--8--8--8---7--7---8--8--8--8--8--8---|

e|------------------------------|
B|------------------------------|
G|------------------------------|
D|------------------------------|
A|--10-10--12-12-12-12--7--7-7--|
E|--7--7---10-10-10-10--5--5-5--|

e||------------------------------------------|
B||------------------------------------------|
G||------------------------------------------|
D||--9-9-9-9-9-------------------------------|
A||--7-7-7-7-7--10--10--10-10-10-10--10--10--|
E||-------------7---8---8--8--8--8---7---8---|

03:47

Guitar 1

e|---------------------------------------------|
B|---------------------------------------------|
G|-----------------------------7--7h9--7-------|
D|---------------5--7--5--5s7-------------7s9--|
A|-3--5--3--5s7--------------------------------|
E|---------------------------------------------|

Guitar 2 The same an octave higher

e|---------------------------------10--10h12--10--------|
B|----------------8--10--8--10s12----------------10s12--|
G|--5--7--5--7s9----------------------------------------|
D|------------------------------------------------------|
A|------------------------------------------------------|
E|------------------------------------------------------|

03:50


[Outro]

e|-------(7)(7)---(7)(7)-------------------------|
B|--------8--7-----8--7--------------------------|
G|--------9--7-----9--7--------------------------|
D|--------9--7-----9--7--7h9p7-------------------| x 4
A|--------7--7-----7--7---------10--9--7------7--|
E|--0--0--------0-------------------------10-----| 

e|----------------------------------------------------|
B|----------------------------------------------------|
G|----------------------------------------------------|
D|--5-5-5-5-5-5-5-5-5-5-5-5-5-5-5-5-------------------|
A|--3-3-3-3-3-3-3-3-3-3-3-3-3-3-3-3--7-7-7-7-7-7-7-7--|
E|--3-3-3-3-3-3-3-3-3-3-3-3-3-3-3-3--5-5-5-5-5-5-5-5--|

e|------------------|
B|------------------|
G|------------------|
D|-----------7-7-7--|
A|--5-5-5-5--5-5-5--|
E|--3-3-3-3--5-5-5--|
     
e|--------------|
B|--------8--7--|
G|--------9--7--|
D|--------9--7--|
A|--------7--7--|
E|--0--0--------|



************************************

| (n)  Ghost note
| h    Hammer-on
| p    Pull-off
| b    Bend
| bd   Bend down
| ~    Vibrato
| s    Slide
| *    Palm mute 

************************************
Suggest correction
Creating personal tab
Creating personal tab
You can edit any tab online and save it as your Personal.

You can edit, replace or remove any tab part or add personal notes – all changes will be seen only by you.

Personal tabs can be accessed anytime from any device, even offline.
Learn more »
Give kudos to tab author, rate the tab!
1 2 3 4 5
comments
print report bad tab
guest
You may want to rate the tab now too:
select rating
Wanna post a correction for this tab? Suggest correction