Oops, an error
Loading. Please wait.

Sjohyenar Havets Herrer Tab

4,973 views 3 this week
no commentswrite comment
1 2 3 4 5
x 6
add to favorites
launch autoscroll
font size
0
reset
how to read this tab
guitar tuner
Autoscroll
slow
fast
+/-
esc
set tempo
stop
Help us to improve Ultimate-Guitar.com Take our survey!
×
Author
Tuning
D A D G B E
Kvelertak - Sjohyenar (Havets Herrer)

Album: Kvelertak
Instrument: Guitar
Tuning: Drop D

Tabbed By: Rolf Oslo


Intro

e||-------------------------------------------------|
B||-------------------------------------------------|
G||-12-14-14-12-12-14-14-10-10-12-12-10-10-12-12-12-|
D||-12-12-12-12-12-12-12-10-10-10-10-10-10-10-10-12-|
A||-------------------------------------------------|
D||-------------------------------------------------|


Verse

e||----------------------------------------|
B||----------------------------------------|
G||-101010-8--7--8--7-----7-7-----7-7------|
D||-101010-8--7--8--7-----7-7-----7-7------|
A||-8-8-8--6--5--6--5-----5-5-----5-5------|
D||-------------------0-0-----0-0-----0-0--| x3
pm                    * *     * *     * *

e||-----------------------------------------|
B||-----------------------------------------|
G||-101010-8--7--8--6-6-6-6-----------------|
D||-101010-8--7--8--6-6-6-6-4-4-4-4-6-6-6-6-|
A||-8-8-8--6--5--6--4-4-4-4-4-4-4-4-6-6-6-6-|
D||-------------------------4-4-4-4-6-6-6-6-|


Pre-chorus

e||-------------------------------------------------|
B||-------------------------------------------------|
G||-12-14-14-12-12-14-14-10-10-12-12-10-10-12-12-12-|
D||-12-12-12-12-12-12-12-10-10-10-10-10-10-10-10-12-|
A||-------------------------------------------------|
D||-------------------------------------------------|


Chorus

e||--------------------------------------|
B||--------------------------------------|
G||--------------------------------------|
D||-10-12-12-7-7-8-8-7-8-10-10-3-3-5-5-0-|
A||-10-12-12-7-7-8-8-7-8-10-10-3-3-5-5-0-|
D||-10-12-12-7-7-8-8-7-8-10-10-3-3-5-5-0-|


Break

e||--------------------------------------|
B||--------------------------------------|
G||------------------------------12-10---|
D||-9-10-11-12-------10-10h12p10---------|
A||------------10-12---------------------|
D||--------------------------------------|

1:25
acoustic
e||--------------------|
B||--------------------|
G||-7--7-7-7-7-5---7---|
D||-7--7-7-5-7-5---5---|
A||-5--5-5-5-5-3---3---|
D||--------------------| x3

dist.
e||-------------------------------|
B||-------------------------------|
G||-------------------------------|
D||-0-0-0-0-5-7--8--8-8-8-8-8-8-8-|
A||-0-0-0-0-5-7--8--8-8-8-8-8-8-8-|
D||-0-0-0-0-5-7--8--8-8-8-8-8-8-8-|


then
e||-----------------------------------------|-----------------------------------------|
B||-----------------------------------------|-----------------------------------------|
G||-----------------------------------------|-----------------------------------------|
D||-0-0-0-0-10-12--10--10-10-10-10-10-10-10-|-0-0-0-0-10-12--10--10-10-10-10-10-10-10-|
A||-0-0-0-0-10-12--10--10-10-10-10-10-10-10-|-0-0-0-0-10-12--10--10-10-10-10-10-10-10-|
D||-0-0-0-0-10-12--10--10-10-10-10-10-10-10-|-0-0-0-0-10-12--10--10-10-10-10-10-10-10-|

e||---------------------------------|-------------------------------|
B||---------------------------------|-------------------------------|
G||---------------------------------|-------------------------------|
D||-0-0-0-0-12-10--8--8-8-8-8-8-8-8-|-0-0-0-0-5-7--8--8-8-8-8-8-8-8-|
A||-0-0-0-0-12-10--8--8-8-8-8-8-8-8-|-0-0-0-0-5-7--8--8-8-8-8-8-8-8-|
D||-0-0-0-0-12-10--8--8-8-8-8-8-8-8-|-0-0-0-0-5-7--8--8-8-8-8-8-8-8-|


Chorus

e||--------------------------------------|
B||--------------------------------------|
G||--------------------------------------|
D||-10-12-12-7-7-8-8-7-8-10-10-3-3-5-5-0-|
A||-10-12-12-7-7-8-8-7-8-10-10-3-3-5-5-0-|
D||-10-12-12-7-7-8-8-7-8-10-10-3-3-5-5-0-|


e||-----------------------------------------------------------|
B||-----------------------------------------------------------|
G||-----------------------------------------------------------|
D||-0----3----0----10-12-0-------15-12-10-12----3-5-3-0-10-12-|
A||-0----3----0----10-12-0-------15-12-10-12----3-5-3-0-10-12-|
D||-0----3----0----10-12-0-------15-12-10-12----3-5-3-0-10-12-|


Verse

e||----------------------------------------|
B||----------------------------------------|
G||-101010-8--7--8--7-----7-7-----7-7------|
D||-101010-8--7--8--7-----7-7-----7-7------|
A||-8-8-8--6--5--6--5-----5-5-----5-5------|
D||-------------------0-0-----0-0-----0-0--| x3
pm                    * *     * *     * *

e||-----------------------------------------|
B||-----------------------------------------|
G||-101010-8--7--8--6-6-6-6-----------------|
D||-101010-8--7--8--6-6-6-6-4-4-4-4-6-6-6-6-|
A||-8-8-8--6--5--6--4-4-4-4-4-4-4-4-6-6-6-6-|
D||-------------------------4-4-4-4-6-6-6-6-|

then

e||----------------------------------------|----------------------------------------|
B||----------------------------------------|----------------------------------------|
G||----------------------------------------|----------------------------------------|
D||-0-0-12-0-10-12--10--10-10-12--12-12-12-|-0-0-12-0-10-12--10--10-10-12--12-12-12-|
A||-0-0-12-0-10-12--10--10-10-10--10-10-10-|-0-0-12-0-10-12--10--10-10-10--10-10-10-|
D||-0-0-12-0-10-12--10--10-10-10--10-10-10-|-0-0-12-0-10-12--10--10-10-10--10-10-10-|


e||----------------------------------|--------------------------------|
B||----------------------------------|--------------------------------|
G||------------------------10-101010-|---------------------10-10101010|
D||-0-0-12-0-12-10--8--8-8-10-101010-|-0-0-0-0-5-7--8--8-8-10-10101010|
A||-0-0-12-0-12-10--8--8-8-8--8-8-8--|-0-0-0-0-5-7--8--8-8-8--8-8-8-8-|
D||-0-0-12-0-12-10--8--8-8-8--8-8-8--|-0-0-0-0-5-7--8--8-8-8--8-8-8-8-|

e||--------------------------------------|
B||--------------------------------------|
G||------------------------------12-10---|
D||-9-10-11-12-------10-10h12p10---------|
A||------------10-12---------------------|
D||--------------------------------------|

end with
e||-------------------|
B||-------------------|
G||-------------------|
D||-0--0--5-7--8------|
A||-0--0.-5-7--8------|
D||-0--0--5-7--8------|
Suggest correction
comments
print report bad tab
guest
You may want to rate the tab now too:
select rating
Wanna post a correction for this tab? Suggest correction