Oops, an error
Loading. Please wait.

Late Tab

by Kwan
1,716 views 3 this week
no commentswrite comment
1 2 3 4 5
3 more votes to show rating
add to favorites
launch autoscroll
font size
0
reset
how to read this tab
guitar tuner
Autoscroll
slow
fast
+/-
esc
set tempo
stop
Help us to improve Ultimate-Guitar.com Take our survey!
×
----------------------------------------------------------------------------
                             Kwan- Late
----------------------------------------------------------------------------
Tabbed by: Camillamazilla

| /  slide up
| \  slide down
| h  hammer-on
| p  pull-off
| ~  vibrato
| +  harmonic
| x  Mute note
|( ) Play if you want to

Tuning: Standard EBGDAE

(0:00)Riff 1
E|------|     |--------------------------------|
B|------|     |--------1---0-------------------|
G|------|     |2---------2---2----2------------|
D|------| 1x  |--2-1-2---------5-----2---------|   4x and then let the
A|-(7\0)|     |------------------------(6\0)---|      A string ring 
E|------|     |--------------------------------|

Slides are actually played by strings


After riff 1 there is no guitar but synth plays :
(0:23)Riff 2
   G     C   Em    Am
E|(3)---(0)-(0)-|-(0)-----|
B|(3)---(1)-(0)-|-(1)-----|
G|(0)---(0)-(0)-|-(2)-----|
D|-0-----2---2--|--2------|
A|-2-----3---2--|--0------|
E|-3---------0--|---------|


(0:32) Play riff 1 (2x)

(0:41)Riff 3
    
 Am       F     C       Em
E|--0--|--1--|--0--||--0--|      Am,F,C are slowly played down,
B|--1--|--1--|--1--||--0--|      Em slowly played up.
G|--2--|--2--|--0--||--0--|1x
D|--2--|--3--|--2--||--2--|
A|--0--|--3--|--3--||--2--|
E|-----|-----|-----||--0--|


(0:52) Riff 4(during chorus) strum somehow  |C|G|Am|F|  2x


(1:12) Riff 1 (2x)
(1:24) Riff 2 (2x) and part of riff 1
(1:33) Riff 1 (2x)
(1:42) Riff 3 (1x)
(1:53) Riff 4 (4x)
Synth plays
(2:44) Riff 4 until it fades

(3:26) Riff 5
E|------------------------5-------1-0----|   Another guitar plays some notes
B|----1-1-------3-3/7-5--5-5-----1---1-0-|   but i couldn´t hear them.
G|---0---0-------0---0--5---5---2-----2--|
D|--2-----2---0--------7-----7-3---------|   Play until fades
A|-3-------3-2-2-------------------------|
E|----------3----------------------------|
Suggest correction
Give kudos to tab author, rate the tab!
1 2 3 4 5
comments
print report bad tab
guest
You may want to rate the tab now too:
select rating
Wanna post a correction for this tab? Suggest correction