Oops, an error
Loading. Please wait.

Rooftops tab

by Kye Kye
122 views 1 this week
no commentswrite comment
1 2 3 4 5
3 more votes to show rating
add to favorites
×
Save as Personal and add changes to this tab that will be seen only by you. Learn more ›
×
You can save this tab as Personal to edit and correct it or add notes. All changes will be seen only by you. Learn more »
launch autoscroll
font size
0
reset
how to read this tab
guitar tuner
edit
Autoscroll
slow
fast
+/-
esc
set tempo
stop
Author
Difficulty
Tabbed by mramirez1974@yahoo.com

quarter note = 87
most tab notes are sixteenth notes


Intro 1                                 Verse 1
                                         A                                      
E|-------------------------------------||-------------------------------------||
B|------7-----7----------7-----7------*||------7-----7----------7-----7------*||
G|----9-----9-----9----9-----9-----9---||----9-----9-----9----9-----9-----9---||
D|--7-----7-----7----7-----7-----7----*||------------------------------------*||
A|-------------------------------------||--0-----0-----0----0-----0-----0-----||
E|-------------------------------------||-------------------------------------||


   D                                      A
E|-----------------------------9-------||-------------------------------------||
B|------7-----7----------7---------7--*||------7-----7----------7-----7------*||
G|----9-----9-----9----9-----9---9-----||----9-----9-----9----9-----9-----9---||
D|--0-----0-----0----0-----0----------*||------------------------------------*||
A|-------------------------------------||--0-----0-----0----0-----0-----0-----||
E|-------------------------------------||-------------------------------------||
                       
                                        ("You're here with me")
   D                                   |   A
E|-----------------------------9-------||-------------------------------------||
B|------7-----7----------7---------7--*||------7-----7----------7-----7------*||
G|----9-----9-----9----9-----9---9-----||----9-----9-----9----9-----9-----9---||
D|--0-----0-----0----0-----0----------*||------------------------------------*||
A|-------------------------------------||--0-----0-----0----0-----0-----0-----||
E|-------------------------------------||-------------------------------------||

                                         Verse 2
   D                                      A
E|-----------------------------9-------||-------------------------------------||
B|------7-----7----------7---------7--*||------7-----7----------7-----7------*||
G|----9-----9-----9----9-----9---9-----||----9-----9-----9----9-----9-----9---||
D|--0-----0-----0----0-----0----------*||------------------------------------*||
A|-------------------------------------||--0-----0-----0----0-----0-----0-----||
E|-------------------------------------||-------------------------------------||
                                                            
                                                           
   D                                      A                                   
E|-----------------------------9-------||-------------------------------------||
B|------7-----7----------7---------7--*||------7-----7----------7-----7------*||
G|----9-----9-----9----9-----9---9-----||----9-----9-----9----9-----9-----9---||
D|--0-----0-----0----0-----0----------*||------------------------------------*||
A|-------------------------------------||--0-----0-----0----0-----0-----0-----||
E|-------------------------------------||-------------------------------------||


   D                                    [5/4]                                     
E|-----------------------------9------|-------------------9----------------|
B|------7-----7----------7---------7--|------7-----7-----------------------|
G|----9-----9-----9----9-----9---9----|----9-----9-----9-------------------|
D|--0-----0-----0----0-----0----------|--0-----0-----0---------------------|
A|------------------------------------|------------------------------------|
E|------------------------------------|------------------------------------|

  Chorus 1
   [4/4] Amaj7                          F#m7
E|------0-----0----------4-----0------|------0-----0----------4-----0------|
B|---------------------------4--------|---------------------------4--------|
G|----2-----2-----2----2-----------2--|----2-----2-----2----2--------------|
D|------------------------------------|--4-----4-----4----4-----4-------0--|
A|--0-----0-----0----0-----0-----0----|-------------------------------0----|
E|------------------------------------|------------------------------------|

   C#m7                                 Emaj7
E|------------0----------4----0-------|------4-----0----------4-----0---0--|
B|------0---4-----4----4----4-----4---|----4-----4-----4----4-----4--------|
G|------------------------------------|------------------------------------|
D|----6-------------------------------|------------------------------------|
A|--4-----4-----4----4----4-----4-----|------------------------------------|
E|------------------------------------|--0-----0-----0----0-----0-----0----|

                                                               ("a home for you")
   Amaj7                                F#m7
E|------0-----0----------4-----0------|------4-----0----------4-----0------|
B|---------------------------4--------|----------4----------------4--------|
G|----2-----2-----2----2-----------2--|----2-----------2----2-----------2--|
D|------------------------------------|--4-----4-----4----4-----4-----4----|
A|--0-----0-----0----0-----0-----0----|------------------------------------|
E|------------------------------------|------------------------------------|


Intro 2  (2nd time start claps on beat 3) Verse 3 (pizzicato in)
                                           A                                      
E|-----------------------------9--------||-------------------------------------||
B|------7-----7----------7----------7--*||------7-----7----------7-----7------*||
G|----9-----9-----9----9-----9----------||----9-----9-----9----9-----9-----9---||
D|--7-----7-----7----7-----7-----------*||------------------------------------*||
A|--------------------------------------||--0-----0-----0----0-----0-----0-----||
E|--------------------------------------||-------------------------------------||

                                         (start beatbox)
   D                                      A            
E|-----------------------------9-------||-------------------------------------||
B|------7-----7----------7---------7--*||------7-----7----------7-----7------*||
G|----9-----9-----9----9-----9---9-----||----9-----9-----9----9-----9-----9---||
D|--0-----0-----0----0-----0----------*||------------------------------------*||
A|-------------------------------------||--0-----0-----0----0-----0-----0-----||
E|-------------------------------------||-------------------------------------||
                       
                        ("So to the...)  Verse 4 (bass in)               
   D                                   |   A
E|-----------------------------9-------||-------------------------------------||
B|------7-----7----------7---------7--*||------7-----7----------7-----7------*||
G|----9-----9-----9----9-----9---9-----||----9-----9-----9----9-----9-----9---||
D|--0-----0-----0----0-----0----------*||------------------------------------*||
A|-------------------------------------||--0-----0-----0----0-----0-----0-----||
E|-------------------------------------||-------------------------------------||

                                         
   D                                      A
E|-----------------------------9-------||-------------------------------------||
B|------7-----7----------7---------7--*||------7-----7----------7-----7------*||
G|----9-----9-----9----9-----9---9-----||----9-----9-----9----9-----9-----9---||
D|--0-----0-----0----0-----0----------*||------------------------------------*||
A|-------------------------------------||--0-----0-----0----0-----0-----0-----||
E|-------------------------------------||-------------------------------------||

                       ("for us to see") (beatbox)    
   D                                                                         
E|-----------------------------9-------||--9---------------------------------|
B|------7-----7----------7---------7--*||------------------------------------|
G|----9-----9-----9----9-----9---9-----||------------------------------------|
D|--0-----0-----0----0-----0----------*||------------------------------------|
A|-------------------------------------||------------------------------------|
E|-------------------------------------||------------------------------------|


Chorus 2

   Amaj7                                F#m7
E||------0-----0----------4-----0------|------0-----0----------4-----0------|
B||*--------------------------4--------|---------------------------4--------|
G||----2-----2-----2----2-----------2--|----2-----2-----2----2--------------|
D||*-----------------------------------|--4-----4-----4----4-----4-------0--|
A||--0-----0-----0----0-----0-----0----|-------------------------------0----|
E||------------------------------------|------------------------------------|

   C#m7                                 Emaj7
E|------------0----------4----0-------|------4-----0----------4-----0---0--|
B|------0---4-----4----4----4-----4---|----4-----4-----4----4-----4--------|
G|------------------------------------|------------------------------------|
D|----6-------------------------------|------------------------------------|
A|--4-----4-----4----4----4-----4-----|------------------------------------|
E|------------------------------------|--0-----0-----0----0-----0-----0----|

   Amaj7                                F#m7
E|------0-----0----------4-----0------|------4-----0----------4-----0------|
B|---------------------------4--------|------------------------------------|
G|----2-----2-----2----2-----------2--|----2-----2-----2----2-----2-----2--|
D|------------------------------------|--4-----4-----4----4-----4-----4----|
A|--0-----0-----0----0-----0-----0----|------------------------------------|
E|------------------------------------|------------------------------------|


   C#m7                                 E/B
E|------------------------------------|----0-----0----------0-----0---------||
B|------2-----0----------2----0-------|------0-----0---0------0-----0---0--*||
G|----4-----4-----4----4----4-----4---|-------------------------------------||
D|------------------------------------|------------------------------------*||
A|--4-----4-----4----4----4-----4-----|-------------------------------------||
E|------------------------------------|--0-----0-----0----0-----0-----0-----||


   Amaj7                                F#m7
E|------0-----0----------4-----0------|------4-----0----------4-----0------|
B|---------------------------4--------|------------------------------------|
G|----2-----2-----2----2-----------2--|----2-----2-----2----2-----2-----2--|
D|------------------------------------|--4-----4-----4----4-----4-----4----|
A|--0-----0-----0----0-----0-----0----|------------------------------------|
E|------------------------------------|------------------------------------|


  Outro                                 
                                                                               
E|-----------------------------9------|-----------------------------9------||
B|------7-----7----------7------------|------7-----7----------7------------||
G|----9-----9-----9----9-----9--------|----9-----9-----9----9-----9--------||
D|--7-----7-----7----7-----7----------|--7-----7-----7----7-----7----------||
A|------------------------------------|------------------------------------||
E|------------------------------------|------------------------------------||

            
            
Suggest correction
Creating personal tab
Creating personal tab
You can edit any tab online and save it as your Personal.

You can edit, replace or remove any tab part or add personal notes – all changes will be seen only by you.

Personal tabs can be accessed anytime from any device, even offline.
Learn more »
Give kudos to tab author, rate the tab!
1 2 3 4 5
comments
print report bad tab
guest
You may want to rate the tab now too:
select rating
Wanna post a correction for this tab? Suggest correction