Oops, an error
Loading. Please wait.

Here For You chords

version 2
version 2

Whole song

by Kygo
6,004 views 36 this week
1 commentread comment
1 2 3 4 5
x 7
add to favorites
×
Save as Personal and add changes to this tab that will be seen only by you. Learn more ›
×
You can save this tab as Personal to edit and correct it or add notes. All changes will be seen only by you. Learn more »
launch autoscroll
font size
0
reset
transpose
0
reset
display chords
guitar tuner
edit
Autoscroll
slow
fast
+/-
esc
set tempo
stop
Author
Difficulty
Strumming
There is no strumming pattern for this song yet. and get +5 IQ
"Here For You"
(feat. Ella Henderson)


[Main Riff]

(It's played with a strange rythm and speed, you just gotta figure that out by listening to the track)
e|---------------------------------------------------------------------------------------------------|
B|-8h11-8----------------8----------------------8----------------------------------------------------|
G|--------10-8----8----8-8----8----8-10--10-10----10-8----8-8---------------8---8-8---------------8--|
D|------------------10----------10----------------------------10----10p8h10---------10----10p8h10----|
A|---------------------------------------------------------------------------------------------------|
E|---------------------------------------------------------------------------------------------------|

e|---------------------------------------------------------------------------------------------------|
B|-8h11-8----------------8---------8-----------------------------------------------------------------|
G|--------10-8----8----8-8----8h10---10-8----8----8h10p8----8-8--------------8---8-8--------------8--|
D|------------------10-------------------------10---------------10---10p8p10---------10---10p8h10----|
A|---------------------------------------------------------------------------------------------------|
E|---------------------------------------------------------------------------------------------------|


[Intro]

Cm    Eb    F    F (x2)  (Capo 3th:  Am    C    D    D)


[Verse 1]

Cm               Eb                        F    
We'll be passing by and I'll be wasting time
F
Just waiting for news
Cm               Eb                        F
And while we're chasing darts, we'll be dancing in the dust
F
Cause we're coming through
Cm               Eb                        F
Whenever you need me, I'm behind
Cm               Eb                        F
And I've promised to take you out to the heights

Cm    Eb    F    F  (x2)

Cm               Eb
When you feel you've had enough and you've wasted all your love
F
I'll be here for you, here for you
Cm               Eb
When the darkest of his bone and you've run away from home
F
I'll be here for you, here for you


[Chorus]

Cm               Eb                        F
I'm here for you, I'm here for you, you, you
Cm               Eb                        F
I'm here for you, yeah, I'm here for you, you, you

Cm    Eb    F    F  (x2)


[Verse 2]

Cm               Eb                        F
And while they're underground, we'll be looking down
F
Cause we found the truth
Cm               Eb                        F
And the fire in the hearts we'll be glowing up to the stars
F
Now we're coming through, yeah
Cm               Eb                        F              
Whenever you feeling down inside
Cm               Eb                        F
I've promised to take you out to the heights

Cm               Eb                        F
Ah yeah, I'm here for you
Cm               Eb                        F
And when you feel you've had enough and you've wasted all your love
F
I'll be here for you


[Chorus]

Cm               Eb                        F
I'm here for you, I'm here for you, you, you
Cm               Eb                        F
I'm here for you, yeah, I'm here for you, you, you


[Outro]

Cm    Eb    F    F  (x2)



************************************

| h  Hammer-on
| p  Pull-off

************************************

            
            
Suggest correction
Creating personal tab
Creating personal tab
You can edit any tab online and save it as your Personal.

You can edit, replace or remove any tab part or add personal notes – all changes will be seen only by you.

Personal tabs can be accessed anytime from any device, even offline.
Learn more »
comments
print report bad tab
1 comment total.
+2 reply
willford1 10 Apr 25, 2016 07:08 AM

This tab can be made slightly easier to play by placing the capo on the 1st fret and playing Bm, C# and E

guest
You may want to rate the tab now too:
select rating
Wanna post a correction for this tab? Suggest correction