Oops, an error
Loading. Please wait.

It Aint Me chords

version 1
version 1

Whole song

by Kygo
303,403 views 5,259 this week
11 commentsread comments
1 2 3 4 5
x 264
add to favorites
×
Save as Personal and add changes to this tab that will be seen only by you. Learn more ›
×
You can save this tab as Personal to edit and correct it or add notes. All changes will be seen only by you. Learn more »
launch autoscroll
font size
0
reset
transpose
0
reset
display chords
guitar tuner
edit
Autoscroll
slow
fast
+/-
esc
set tempo
stop
Strumming Is this strumming pattern correct? Yes No
Verse 100 bpm
1
 
&
 
2
 
&
 
3
 
&
 
4
 
&
 
Listen
[Intro]
  Em                    G                     C                        G
e|----x-------------x-------x-------------x--|-----x---------------x-------x-------------x------|
B|0---x---------0---x---3---x---------4---x--|5----x----------5----x---3---x---------3---x------|
G|0---x---0---------x---4---x---4---------x--|5----x---5-----------x---4---x---4---------x------|
D|----x-------------x-------x-------------x--|-----x---------------x-------x-------------x------|
A|----x-------------x-------x-------------x--|3----x-------3-------x-------x-------------x------|
E|0---x------0------x---3---x------3------x--|-------------------------3---x------3------x------|

  C                     G                     D                        D
e|----x-------------x-------x-------------x--|-----x---------------x-----------x-------------x--|
B|5---x---------5---x---3---x---------3---x--|7----x----------7----x---8p7-----x---------8---x--|
G|5---x---5---------x---4---x---4---------x--|7----x---7-----------x---8-------x---8---------x--|
D|----x-------------x-------x-------------x--|-----x---------------x-----------x-------------x--|
A|3---x------3------x-------x-------------x--|5----x-------5-------x-----------x-------------x--|
E|----------------------3---x------3------x--|---------------------x---6--------------6---------|


[VERSE]
Em        G
I had a dream
         C               G
We were sipping whisky neat
          C             G
Highest floor, the bowery
           D
Nowhere's high enough
     Em              G
Somewhere along the lines
           C              G
We stopped seeing eye to eye
           C               G
You were staying out all night
       D
And I had enough


[PRE-CHORUS]
      Em           G              C                    G 
No, I don't wanna know where you been or where you're going
       C               G
But I know I won't be home
              D
And you'll be on your own


[CHORUS]
            C                    G                 D
Who's gonna walk you through the dark side of the morning?
            C                 G                  D
Who's gonna rock you when the sun won't let you sleep?
             C                G                D             Em
Who's waking up to drive you home when you're drunk and all alone?
            C                    G                 D
Who's gonna walk you through the dark side of the morning?

It ain't me
Em  G  D  C  Em G  D  D  |
C   G  Em D  C  G  D  D  |

It ain't me
Em  G  D  C  Em G  D  D  |
C   G  Em D  C  G  D  D  |

Em G

[VERSE]
Em        G
I had a dream
         C            G
We were back to seventeen
         C                  G
Summer nights and the libertines
       D
Never growing up
Em             G               
I'll take with me
         C                 G
The polaroids and the memories
         C              G
But you know I'm gonna leave
            D
Behind the worst of us


[CHORUS]
            C                    G                 D
Who's gonna walk you through the dark side of the morning?
            C                 G                  D
Who's gonna rock you when the sun won't let you sleep?
             C                G                D             Em
Who's waking up to drive you home when you're drunk and all alone?
            C                    G                 D
Who's gonna walk you through the dark side of the morning?
         C       G        D
It ain't me, no no
         C       G        D
It ain't me, no no
         C       G        D       Em
It ain't me, no no
            C                    G                 D
Who's gonna walk you through the dark side of the morning? It ain't me


[DROP ''It ain't me'']

Em  G  D  C  Em G  D  D  |
C   G  Em D  C  G  D  D  |

****************

| p   Pull-off
| x   Dead note

****************


            
            
Suggest correction
Creating personal tab
Creating personal tab
You can edit any tab online and save it as your Personal.

You can edit, replace or remove any tab part or add personal notes – all changes will be seen only by you.

Personal tabs can be accessed anytime from any device, even offline.
Learn more »
comments
print report bad tab
11 comments total. Showing first comments.
0 reply
lisa-marie2 10 Apr 22, 2017 09:49 AM

👍

+3 reply
03031991 10 Apr 28, 2017 01:15 PM, edited at 05:22 pm

In CHORUS "when you're drunk" part is not the D chord, but sounds like B7. Try it - just sounds better and right,
And in PRE-CHORUS "be on your own" part is D7.

+4 reply
trulsivar 10 May 23, 2017 09:13 AM

The last D on the intro is wrong.
i believe this is the right way to play it
e|-----x---------------x-----------x-------------x--|
B|7----x----------7----x---7p8-----x---------7---x--|
G|7----x---7-----------x---7-------x---7---------x--|
D|-----x---------------x-----------x-------------x--|
A|5----x-------5-------x---5-------x------5------x--|
E|---------------------x----------------------------|

guest
You may want to rate the tab now too:
select rating
Wanna post a correction for this tab? Suggest correction