Oops, an error
Loading. Please wait.

It Aint Me tab

version 2
version 2

Whole song

  • Fingerstyle arrangement by Dax Andreas.
by Kygo
2,734 views 21 this week
no commentswrite comment
1 2 3 4 5
1 last vote to show rating
add to favorites
×
Save as Personal and add changes to this tab that will be seen only by you. Learn more ›
×
You can save this tab as Personal to edit and correct it or add notes. All changes will be seen only by you. Learn more »
launch autoscroll
font size
0
reset
how to read this tab
guitar tuner
edit
Autoscroll
slow
fast
+/-
esc
set tempo
stop
About this tab version
Fingerstyle arrangement by Dax Andreas. Was this info helpful? Yes No
https://www.youtube.com/watch?v=5msUo-QmMqE

[Intro]

e|-----------------------------------0----------0-----------------------0---------0------|
B|-0----------0-----3----------3----------------1------3----------3---------------1------|
G|------------0----------------0-------------0--------------------0-------------0--------|
D|---------2----------------0-----------------------------------0------------------------|
A|----x----------x-----x----------x--3--x--3--------x-----x----------x--3--x--3------x---|
E|-0--x-0--------x--3--x-3--------x-----x-----------x--3--x--3-------x-----x---------x---|

e|--------------------2---------2-----3p2--------2---------------------------------------|
B|--3----------3----------------3----------3-----3---------------------------------------|
G|-------------0--------------2---------------2------------------------------------------|
D|----------0---------0-----0---------0--------------------------------------------------|
A|-----x----------x------x---------x-----------------------------------------------------|
E|--3--x--3-------x------x---------x-----------------------------------------------------|

[Verse]

e|-----------------------------------------------------------------------------3p2-----2-|
B|------------0-------------1p0-0------------1p0-0---0-(0)-0-----0-----------3-----3---3-|
G|-0-----0h2------2-0-------0------2-0-------0-------0-(0)-0--------2-2----2---------2---|
D|----------------0-0--2----2-----------2----2-------------------0----0--0---------------|
A|---------------------3-3--------------3-3-------------x--------------------------------|
E|-0--0-------3-----------------3----------------3------x-----3--------------------------|

e|-----------------------------------------------------------------------------3p2-----2-|
B|------------0-------------1p0-0------------1p0-0---0-(0)-0-----0-----------3-----3---3-|
G|-0-----0h2------2-0-------0------2-0-------0-------0-(0)-0--------2-2----2---------2---|
D|----------------0-0--2----2-----------2----2-------------------0----0--0---------------|
A|---------------------3-3--------------3-3-------------x--------------------------------|
E|-0--0-------3-----------------3----------------3------x-----3--------------------------|

[Prechorus]

e|--0-0-0--------------------------------------------------------------------------------|
B|--1-1-1--3--0-0-0--0--1-1-1--0--0--0-0--0--1-1-1--0--0-0--0-----0----------------------|
G|----0-0-------0-0-----0-0-0--------0-0-----0-0-0-------0--0-(0)---2-2/5-----5----------|
D|----------------2---------2----------2---------2----------------0----------------------|
A|--3---x---------x-----3---x----------x-----3---x----------x--------------5-------------|
E|------x-----0---x---------x-----0----x---------x-----0----x----------------------------|

[Chorus]

e|-2--2--0-3-----------------------------------2-2-0-3-----------------------------------|
B|-3--3--0-1-1-1-----0-0-0----0----------3-----3-3-0-1-1-1-----0-0-0----------------3----|
G|---(4)-----0-0-------0-0------2------2---------------0-0-------0-0-----2--------2------|
D|-------------2---------0----0------0------0------------2---------0-----0-0----0------0-|
A|----x----3---x--3------x--------x--------------x---3---x--3------x----------x----------|
E|----x--------x-----3---x-3------x--------------x-------x-----3---x--3-------x----------|

e|-2-2-0-3--0--3--5-3-3--3h5--5/7--7--7--5-5-3-2-2-3-------------------------------------|
B|-3-3-0-1--1--1---------0-----------(0)-----0-0---1-1-1----0-0-0---0----------3~--------|
G|-----------------------------------(0)-------------0-0------0-0-----2------2----0h2h4--|
D|-----------------------------------------------------2--------0---0------0-------------|
A|---x---3-----x---------x------------x--------x---3---x-3------x--------x---------------|
E|---x---------x----3----x----0-------x--------x-------x----3---x-3------x---------------|

[Breakdown]

e|---------------------------------------------------------------------------------------|
B|--------------------1--0-0-------------------1-0-0------1p0--0----------0------1p0--0--|
G|----0h2--0h2--------0----0-----0h2-0h2-------0---0------0----0------0----------0----0--|
D|----2----2-------0----------0-------------0---------------------------------0----------|
A|-x------------------x-------------------3----x-----------------------------------------|
E|-0------------3-----x------------------------x-------0----------0-3---3---3------------|

e|---------------------------------------------------------------------------------------|
B|----------0----------------------1--0-0-------------------1-0-0----1p0--0----------0---|
G|------0----------0h2--0h2--------0----0-----0h2-0h2-------0---0----0----0------0-------|
D|--0--------------2----2-------0----------0-------------0-------------------------------|
A|----3---3---3--------------------x-------------------3----x----------------------------|
E|---------------0------------3----x------------------------x------0---------0-3---3---3-|

e|---------------------------------------------------------------------------------------|
B|----1p0-0----------0------------------------1--0-0-----------------------1-0-0---1p0---|
G|----0---0------0-----------0h2---0h2--------0----0----0h2-----0h2-----0--0---0---0-----|
D|-0---------0---------------2-----2-------0--0------0---------------------0-------------|
A|-------------3---3---3-----2---x-2----------x--------------x-------3-----x-----------x-|
E|------------------------0------x------3-----x--------------x-------------x-----0-----x-|

e|---------------------------------------------------------------------------------------|
B|-0-----------0--------1p0----0------------0--------------------------1-0-0-------------|
G|-0-----0-----0--------0------0-------0----0--------0h2---0h2---------0---0---0h2---0h2-|
D|-------------------0-------------------------------2-----2--------0--0-----0-----------|
A|----------x---------------x-------3----x-----------2---x-2-----------x-----------x-----|
E|---0-3----x-----3---------x-----0------x-----0--0------x-------3-----x-----------x-----|

e|---------------------------------------------------------------------------------------|
B|------1-0-0---1p0----0-----------0-------1p0----0--------------------------------------|
G|----0-0---0---0------0-----------0-------0------0--------0h2h4-------------------------|
D|------0--------------------0----------0------------------------------------------------|
A|-3----x------------x----------x---------------x----------------------------------------|
E|------x-----0------x---0-3----x----3----------x-----0-3--------------------------------|

[Verse]

e|---------------------------------------------------------------------------------------|
B|---0-------0---0-----------------0-----------1p0-0------------1p0-0---0-(0)-0-----0----|
G|---0-------0---0-------0-----0h2---2-0-------0------2-0-------0-------0-(0)-0--------2-|
D|---2-------2---2-------2---2-------0-0--2----2-----------2----2-------------------0----|
A|-----x---2-------x---2------------------3-3--------------3-3-------------x-------------|
E|-0---x-0-----0---x-0-----0-------3---------------3----------------3------x-----3-------|

e|----------3p2-----2--------------------------------------------------------------------|
B|--------3-----3---3-----------0-----------1p0--0----------1p0-0--0-(0)-0---0---------3-|
G|-2----2---------2----0----0h2----2-0------0-------2-0-----0------0-(0)-0-----2-2---2---|
D|-0--0----------------------------0-0-2----2-----------2---2----------------0---0-0-----|
A|-------------------------------------3-3--------------3-3-----------x------------------|
E|---------------------0--0-----3----------------3--------------3-----x----3-------------|


[Chorus]

e|-2--2--0-3-----------------------------------2-2-0-3-----------------------------------|
B|-3--3--0-1-1-1-----0-0-0----0----------3-----3-3-0-1-1-1-----0-0-0----------------3----|
G|---(4)-----0-0-------0-0------2------2---------------0-0-------0-0-----2--------2------|
D|-------------2---------0----0------0------0------------2---------0-----0-0----0------0-|
A|----x----3---x--3------x--------x--------------x---3---x--3------x----------x----------|
E|----x--------x-----3---x-3------x--------------x-------x-----3---x--3-------x----------|

e|-2-2-0-3--0--3--5-3-3--3h5--5/7--7--7--5-5-3-2-2-3-------------------------------------|
B|-3-3-0-1--1--1---------0-----------(0)-----0-0---1-1-1----0-0-0---0----------3~--------|
G|-----------------------------------(0)-------------0-0------0-0-----2------2----0h2h4--|
D|-----------------------------------------------------2--------0---0------0-------------|
A|---x---3-----x---------x------------x--------x---3---x-3------x--------x---------------|
E|---x---------x----3----x----0-------x--------x-------x----3---x-3------x---------------|

[Breakdown]

e|---------------------------------------------------------------------------------------|
B|------1----0---(0)-------(0)------------1p0-------1----0---(0)------(0)----------1p0---|
G|---0--0----0----4-----2---2-----2----0--0------0--0----0----4-----2--2----2----0-0-----|
D|---0-----------(0)----0--(0)--0------0---------0-----------(0)----0-(0)-0------0-------|
A|------x---------x---------x-------3-----x---------x---------x--------x------3----x-----|
E|-0----x--0-3-3--x--3------x-------------x----0----x--0-3-3--x--3-----x-----------x-----|

e|-----------------------------------2-2-0--3--------------------------------------------|
B|------1----0---(0)------(0)--------3-3-0--1-1-1----0-0-0---0----------3----------------|
G|---0--0----0----4----2---2----2-------------0-0------0-0-----2------2------------------|
D|---0-----------(0)---0--(0)-0-----------------2--------0---0------0-----0h2h4----------|
A|------x---------x--------x------3----x----3---x--3-----x--------x----------------------|
E|-0----x--0-3-3--x--3-----x-----------x--------x----3---x-3------x----------------------|

e|---------------------------------------------------------------------------------------|
B|--------------------1--0-0-------------------1-0-0------1p0--0----------0------1p0--0--|
G|----0h2--0h2--------0----0-----0h2-0h2-------0---0------0----0------0----------0----0--|
D|----2----2-------0----------0-------------0---------------------------------0----------|
A|-x------------------x-------------------3----x-----------------------------------------|
E|-0------------3-----x------------------------x-------0----------0-3---3---3------------|

e|---------------------------------------------------------------------------------------|
B|----------0----------------------1--0-0-------------------1-0-0----1p0--0----------0---|
G|------0----------0h2--0h2--------0----0-----0h2-0h2-------0---0----0----0------0-------|
D|--0--------------2----2-------0----------0-------------0-------------------------------|
A|----3---3---3--------------------x-------------------3----x----------------------------|
E|---------------0------------3----x------------------------x------0---------0-3---3---3-|

e|---------------------------------------------------------------------------------------|
B|----1p0-0----------0------------------------1--0-0-----------------------1-0-0---1p0---|
G|----0---0------0-----------0h2---0h2--------0----0----0h2-----0h2-----0--0---0---0-----|
D|-0---------0---------------2-----2-------0--0------0---------------------0-------------|
A|-------------3---3---3-----2---x-2----------x--------------x-------3-----x-----------x-|
E|------------------------0------x------3-----x--------------x-------------x-----0-----x-|

e|---------------------------------------------------------------------------------------|
B|-0-----------0--------1p0----0------------0--------------------------1-0-0-------------|
G|-0-----0-----0--------0------0-------0----0--------0h2---0h2---------0---0---0h2---0h2-|
D|-------------------0-------------------------------2-----2--------0--0-----0-----------|
A|----------x---------------x-------3----x-----------2---x-2-----------x-----------x-----|
E|---0-3----x-----3---------x-----0------x-----0--0------x-------3-----x-----------x-----|

e|---------------------------------------------------------------------------------------|
B|------1-0-0---1p0----0-----------0-------1p0----0--------------------------------------|
G|----0-0---0---0------0-----------0-------0------0-------0--0h2--0----------------------|
D|------0--------------------0----------0--------------------0---------------------------|
A|-3----x------------x----------x---------------x-----0-3----x---------------------------|
E|------x-----0------x---0-3----x----3----------x------------x----0----------------------|

************************************

| x   Dead note
|(n)  Ghost note
| h   Hammer-on
| p   Pull-off
| /   Slide up
| \   Slide down
| ~   Vibrato

************************************

            
            
Suggest correction
Creating personal tab
Creating personal tab
You can edit any tab online and save it as your Personal.

You can edit, replace or remove any tab part or add personal notes – all changes will be seen only by you.

Personal tabs can be accessed anytime from any device, even offline.
Learn more »
Give kudos to tab author, rate the tab!
1 2 3 4 5
comments
print report bad tab
guest
You may want to rate the tab now too:
select rating
Wanna post a correction for this tab? Suggest correction