Oops, an error
Loading. Please wait.

Because Of You Tab

version 2
version 2

Whole song

by Kyla
1,004 views 3 this week
no commentswrite comment
1 2 3 4 5
please rate
add to favorites
launch autoscroll
font size
0
reset
how to read this tab
guitar tuner
Autoscroll
slow
fast
+/-
esc
set tempo
stop
Help us to improve Ultimate-Guitar.com Take our survey!
×
Because of you

intro:


  C9	      C7	   C9	      C7
e|-------------------------------------------------------------------------|
B|-------3----1-----1------3-----3----1-----1------------------------------|
G|-----0--------3-3----------0-0--------3-3--------------------------------|
D|---2---------------------------------------------------------------------|
A|-3----------3------------3----------3------------------------------------|
E|-------------------------------------------------------------------------|

Verse:1


  C9	      C7	 F	    G
e|------------------0----------1----0--------------------------------|
B|-3-----3--------1---------------------3----------------------------|
G|---0-0--------3------------2---------------------------------------|
D|-------------------------3-----------------------------------------|
A|-3----------3------------------------------------------------------|
E|-----------------------1----------3---3----------------------------|
   If ever you-wondered-if you touch my soul-yes you do


   C9		C7	      F		      G
e|--------0------------3--------------1-------0--------------------------|
B|------3------------1---------------------------3-----------------------|
G|----0------------3---------------2----------------0-----0--------------|
D|-------------------------------3---------------------0-----------------|
A|-3------------3--------------------------------------------------------|
E|----------------------------1---------------3--3-----------------------|
Since the moment its not the-Same-You bring life to everything i-Do


Refain:1

   F	      	  Em	      D 	 G
e|---------1-----------------------------0-------------------------------|
B|-1--------------------0-----3-----3--------3---------------------------|
G|------2-------------0-----------2--------------------------------------|
D|----3-------------2---------0-0----------------------------------------|
A|-----------------------------------------------------------------------|
E|-1--------------0----------------------3---3---------------------------|
 Just the way that-You say hello-With one touch i-Cant let go

   F			Em		D	   G
e|---------1---------------------------------------0------0--------------------------|
B|-------1---1--------------0----------------3--------------3------------------------|
G|-----2-------2----------0---0------------2---------0--------0----------------------|
D|---3-----------3------2-------2--------4-------------0--------0--------------------|
A|-------------------------------------5------------------------2&3prepare4C---------|
E|-1------------------0----------------------------3--------3------------------------|
   Never thought im-Fallin inlove-With you---

chorus:1

   C  		C7	      F			  G
e|----------------------------------1-------------0-----0--------------------------------|
B|-------1-|----------1-|---------1---1-------------------3------------------------------|
G|-----0-0-|--------3-3-|-------2-------2-----------0-------0----------------------------|
D|---1---1-|------2---2-|-----3-----------3-----------0-------0--------------------------|
A|-3-------v----3-------v--------------------------------------2&3prepare4C--------------|
E|------------------------------------------------3-------3------------------------------|
   because of you- My life has change- thank u for the loving and-Joy you bring

  C		 C7		  F		     G
e|---------------------------------------------------0------0--------------------|
B|-------1-|-----------1-|---------------1-----1--------------3------------------|
G|-----0-0-|---------3-3-|--3----------2-----2---2------0------------------------|
D|---2---2-|-------2---2-|-----------3-----3--------------0----------------------|
A|-3-------v-----3-------v--3----------------------------------------------------|
E|--------------------------------1------------------3--------3------------------|
   Because of you-Ifeel no shame-Itell the world-its because of you

intro2


  C9		    C7 		      C9	      C7
e|---------------------------------------------------------------------------------------|
B|-------3-|--------1-----1-|---------3-----3-|-------1-----1-|--------------------------|
G|-----0-0-|-0--------3-3-3-|-3---------0-0-0-|---------3-3-3-|--------------------------|
D|---2---2-|--------------2-|---------------2-|-------------2-|--------------------------|
A|-3-------v--------3-------v---------3-------v-------3-------v--------------------------|
E|---------------------------------------------------------------------------------------|


Verse:2


  C9			C7	      F			   G
e|--------0------0--------------0--------------------------0------0-------|
B|-----------------3-------------------------1-----1----------------3-----|
G|-----0------0--------------3--------------2-----2---2--------0----------|
D|---2------2--------------2-------------3------3----------------0--------|
A|-3---------------------3------------------------------------------------|
E|------------------------------------1-----------------------3--------3--|
   Sometimes i get-Lonely-All i gotta do is-Think of-You


  C9			 C7	       F		    G

e|--------0------0--------------0---------------------------0-----0---------------|
B|-----------------3--------------------------1-----1-----------------------------|
G|-----0------0--------------3--------------2-----2---2-------0-------------------|
D|---2------2--------------2--------------3-----3---------------0-----------------|
A|-3---------------------3------------------------------------------2-^-----------|
E|-------------------------------------1--------------------3-----3-3-|-----------|
   I got something inside of-Me-you make all of my dreams come-True


refain:2

  F		     Em   	   D	       G
e|-----------------------------------------------------------------0-----------------|
B|--------1-----1-----------0--------------2-------------3---------------------------|
G|------2-----2---2-------0--------------3------------0---------0--------------------|
D|----3-----3-----------2-----2--------0------------0---------0----------------------|
A|----------------------------2------0-----------------------------------------------|
E|-1-----------------0---------------------------3---------3-------------------------|
   Its not enough that you love me-For me-You reach inside and-Touch me eternally

  F	       Em  	   Dm			 G
e|-------------------------------1-----1----------------0----------------------|
B|--------1-----------0--------2-----2---2-------3------3----------------------|
G|------2-----------0--------3-----3-------3----------0------------------------|
D|----3-----------2--------0------------------------0--------------------------|
A|-----------------------------------------------------------------------------|
E|-1-----------0---------------------------------3-----------------------------|
   Ilove you best-Explains how i feel-For--------------------------------------|you

chorus:3

  C		       C7	       F		 G
e|-------------------------------------------------------0------0---------------------|
B|-------1-----1-------------1-1-|----------1-----1---------------3-------------------|
G|-----0-----0---0---------3---3-|--------2-----2---2-------0-------0-----------------|
D|---2-----2-------------2-----2-|------3-----3---------------0-------0---------------|
A|-3-------------------3-------3-v--------------------------------------2&3prepare4C--|
E|-------------------------------------1-----------------3--------3-------------------|

   because of you- My life has change- thank u for the loving and-Joy you bring


  C			 C7		   F 		 G
e|-------------------------------------------------------0------0-----------------|
B|-------1-----1-3-|------------1-1-|-------------1----------------3--------------|
G|-----0-----0---0-|----------3---3-|-----------2-----------0---------------------|
D|---2-----2-----2-|--------2-----2-|---------3---------------0-------------------|
A|-3---------------v------3---------v---------------------------------------------|
E|-----------------------------------------1-------------3---------3--------------|
    Because of you-Ifeel no shame-Itell the world-its because of you


bridge:


   Am		 	 Em		 Dm			  G
e|---------0-----------------------------------1-----1----------------------------0------|
B|-------1---------1---------------0---------3-3---3---3----------------3-----3-------3--|
G|-----2---------2-------0-^-----0---------2-----2-------2------------0-----0---0--------|
D|-------------2---------2-|---2---------0-----0-----------0--------0-----0--------------|
A|--0--------0-----------2-|-2-----------------------------------------------------------|
E|----------------------------------------------------------------3---------------3---3--|
    The magic in your-Eyes true love i cant-deny when you hold me i just-Loose control

   Am					      Em			       Dm					   G
e|------------------------------------------------------------------------------1-^-1-^-1-^--1-|----1-^-1-^-1-^--1-|-----------------------------------|
B|-------1-----1--------------1---------------------0-----0----------0----------2-|-2-|-2-|--2-|----2-|-2-|-2-|--2-|-------3-----3-----3---3-3---------|
G|-----2-----2---1----------2---2-----------------0-----0---0------0------------3-|-3-|-3-|--3-|----3-|-3-|-3-|--3-|---------0-0---0-0---0-------------|
D|---2-----2--------------2-------2-------------2-----2----------2------2-^-----0-|-0-|-0-|--0-v----0-|-0-|-0-|--0-v-----------------------------------|
A|-0--------------------0-----------0-----------------------------------2-|----------------------------------------------------------------------------|
E|--------------------------------------------0----------------0--------0-|------------------------------------------------3---------------------------|
   I want you to know that i-Never letting go you-Mean so much to me i-Want the world to 
its-Because of you ohhhh...oooh

chorus4

   C  		C7	    F			 G
e|--------0-----------0--------------------------0-------0----------------------|
B|------1------------1-------------1-----1------------------3-------------------|
G|----0------------3-------------2-----2---2--------0---------------------------|
D|-----------------------------3-----3----------------0-------------------------|
A|-3------------3---------------------------------------------------------------|
E|--------------------------1--------------------3----------3-------------------|
   because of you- My life has change- thank u for the loving and-Joy you bring

   C  	    C7	      	F	      G
e|-0----------------------------------0--------0---------------------------------|
B|-3--3-----------1------------1------------------3------------------------------|
G|--------------3------------2-----------0---------------------------------------|
D|------------2------------3---------------0-------------------------------------|
A|-3--3-----3--------------------------------------------------------------------|
E|----------------------1-------------3-----------3------------------------------|
   Because of you-Ifeel no shame-Itell the world-its because of------------------|..

   C  		  C7	     	 F		    G
e|--------------------------------------------------0-------0-----|
B|-1-----1--1-----------1-|------------1-----1-----------------3--|
G|-----0--------------3-3-|----------2-----2--2--------0----------|
D|---2--------------2---2-v--------3-----3---------------0--------|
A|-3--------3-----3-----------------------------------------------|
E|------------------------------1-------------------3----------3--|
   ---------------------------------------------------------------|.. you- My life has 
thank u for the loving and-Joy you bring


   C  	       C7	   F		       G
e|--------------------------------------------------------------------------------|
B|-------1-----------1------------1-----3------3-^--------------------------------|
G|-----0-----------3------------2---------0----0-|--------------------------------|
D|---2-----------2------------3-------------0--0-|--------------------------------|
A|-3-----------3-------------------------------2-|--------------------------------|
E|-------------------------1------------3------3-|--------------------------------|
   Because of you-Ifeel no shame-Itell the world-its because of you...

  C9.....till fade...
e|---------------------------0--------------------0-^------------------------------|
B|-------3-----3-----3-----3---3--------------3---3-|------------------------------|
G|-----0-----0---0-------0-------0----------0-----0-|------------------------------|
D|---2-----2-----------2-----------2------2-------2-|------------------------------|
A|-3-----------------3------------------3---------3-|------------------------------|
E|---------------------------------------------------------------------------------|
Suggest correction
Give kudos to tab author, rate the tab!
1 2 3 4 5
comments
print report bad tab
guest
You may want to rate the tab now too:
select rating
Wanna post a correction for this tab? Suggest correction