Oops, an error
Loading. Please wait.

I Dont Want You To Go Tab

by Kyla
7,715 views 3 this week
no commentswrite comment
1 2 3 4 5
x 3
add to favorites
launch autoscroll
font size
0
reset
how to read this tab
guitar tuner
Autoscroll
slow
fast
+/-
esc
set tempo
stop
Help us to improve Ultimate-Guitar.com Take our survey!
×
Difficulty
novice
                            Band Name-kyla
                      SONG: I DONT WANT YOU TO GO

Tabbed by:ivan2888
Email:ivan_harold_28@yahoo.com

Tuning:standard

heres a simple but accurate tab of the song i dont want you to go by kyla..hope you 
it guys..
note:there is a single tab version thats the piano version and there is a whole chords 
version..i will show you both..but i'll make it much simpler..=)
DEDICATED SA X KOH...HEHEHHE

intro chords:eb-c#M7-Bb 2X:

verse chords:eb-c#M7-Bb

refrain chords:eb-c#M7-eb-Bb-c#M7-Bb

heres the piano version:
intro;
e|----------------------------|--------------------------------------------|
B|-8---6~-4-6-8/9-8~---6------|---6-8-8-8/9-8~-6----------6-8--------------|
G|---6---------------5--------|-7-----------------7---7-6------------------|
D|----------------------------|---------------------8----------8-----------|
A|-6--------------------------|--------------------------------------------|
E|----------------------------|--------------------------------------------|
verse:
e|----------------------------|--------------------------------------------|
B|-8---6~-4-6-8/9-8~---6------|---6-8-8-8/9-8~-6----------6-8--------------|
G|---6---------------5--------|-7-----------------7---7-6------------------|
D|----------------------------|---------------------8----------8-----------|
A|-6--------------------------|--------------------------------------------|
E|----------------------------|--------------------------------------------|

refrain:
e|--------------------------|----------------------------------------------|
B|-6--8--9--9/11~-----------|-------------11~-11~-11~-11~-11~--------------|
G|--------------------------|---------------------------------12----12p13~-|
D|--------------------------|------------------------------------13--------|
A|--------------------------|----------------------------------------------|
E|--------------------------|----------------------------------------------|

e|-------------------------------------------------------------------------|
B|-------------------------------------------------------------------------|
G|----------13---13---13---13---13p12---13---13/15~------------------------|
D|-------------------------------------------------------------------------|
A|-------------------------------------------------------------------------|
E|-------------------------------------------------------------------------|

e|-------------------------------------------------------------------------|
B|-------------------------------------------------------------------------|
G|-15-15-15-15-15-12------12p13--10--12--12/13--12---10---8----8~----------|
D|--------------------13---------------------------------------------------|
A|-------------------------------------------------------------------------|
E|-------------------------------------------------------------------------|
REPEAT INTRO:
REPEAT VERSE:
REPEAT REFRAIN:
REPEAT INTRO:BUT Eb to C#M7 only

bridge chords:

BRIDGE:
e|----------------5/6---|---6---6---6---6p4---3-----------------------------|
B|-------4---6/8--------|------------------------4----4----4/6----6---------|
G|-7--------------------|---------------------------------------------------|
D|----------------------|---------------------------------------------------|
A|----------------------|---------------------------------------------------|
E|----------------------|---------------------------------------------------|

e|-----------8----6-----|---6-6--6-6P3--3-3---------------------------------|
B|-------6--------------|-6------------------6--6--8--9--8------------------|
G|-7--7-----------------|-----------------------------------10---8~---------|
D|----------------------|---------------------------------------------------|
A|----------------------|---------------------------------------------------|
E|----------------------|---------------------------------------------------|

REPEAT INTRO:

REFRAIN-2 chords:e-dM7-b-e-b-dM7-b

REFRAIN-2 2X:
e|--------------------------|----------------------------------------------|
B|-7--9--10--11/12~---------|---------12~-12~-12~-12~-12~------------------|
G|--------------------------|-----------------------------13-----13p14~----|
D|--------------------------|---------------------------------14-----------|
A|--------------------------|----------------------------------------------|
E|--------------------------|----------------------------------------------|

e|-------------------------------------------------------------------------|
B|-------------------------------------------------------------------------|
G|----------14---14---14---14---14p13---14---14/16~------------------------|
D|-------------------------------------------------------------------------|
A|-------------------------------------------------------------------------|
E|-------------------------------------------------------------------------|

e|-------------------------------------------------------------------------|
B|-------------------------------------------------------------------------|
G|-16-16-16-16-16-13------13p14--11--13--13/14--13---11---9----9~----------|
D|--------------------14---------------------------------------------------|
A|-------------------------------------------------------------------------|
E|-------------------------------------------------------------------------|
REPEAT INTRO THEN PAUSE THEN ENDING

e|------------------7------------7-----------------------------------------|
B|---------------7----7----------7-----------------------------------------|
G|-----------9-----------9-------9-----------------------------------------|
D|--------9-----------------9----9-----------------------------------------|
A|-----7-------------------------7-----------------------------------------|
E|--7----------------------------7-----------------------------------------|

HOPE LYK IT:JUST LISTEN TO THE SONG TO GET THE RYT TIMING:

| /  slide up
| \  slide down
| h  hammer-on
| p  pull-off
| ~  vibrato
| +  harmonic
| x  Mute note
===============================================================================
Suggest correction
Give kudos to tab author, rate the tab!
1 2 3 4 5
comments
print report bad tab
guest
You may want to rate the tab now too:
select rating
Wanna post a correction for this tab? Suggest correction