Oops, an error
Loading. Please wait.

Been Better chords

3,918 views 3 this week
1 commentread comment
1 2 3 4 5
x 5
add to favorites
×
Save as Personal and add changes to this tab that will be seen only by you. Learn more ›
×
You can save this tab as Personal to edit and correct it or add notes. All changes will be seen only by you. Learn more »
launch autoscroll
font size
0
reset
transpose
0
reset
display chords
guitar tuner
edit
Autoscroll
slow
fast
+/-
esc
set tempo
stop
Strumming
There is no strumming pattern for this song yet. and get +5 IQ
-------------------------------------------------------------------------------
                             BEEN BETTER - Kyla la Grange
-------------------------------------------------------------------------------
Tabbed by: mrsubwoof
Tuning: Standard
Capo: 3


Main Riff (distorted, tabs are without capo):

e|---------------------------------------------------------------------------|
B|--8-8----------------------------------------------------------------------|
G|------5-5-7-7-3-3----------------------------------------------------------|
D|---------------------------------------------------------------------------|
A|---------------------------------------------------------------------------|
E|---------------------------------------------------------------------------|

Solo (disorted, tabs are without capo):

e|---------------------------------------------------------------------------|
B|---------------------------------------------------------------------------|
G|--7-5-3-3------------7-5-3-3-----------------------------------------------|
D|----------3-3-5--------------3-5-------------------------------------------|
A|---------------------------------------------------------------------------|
E|---------------------------------------------------------------------------|

Acoustic guitar chords (with capo):

  Main Riff (8x)

 Em                    G
Tell me, none of your longings
         D             Em
I don't need them, or you
     Em                     G
And leave me, none of your wisdom
         D                       Em
I don't need your lies, or your truths


 Em                         G
I've been better, when the sky was red
        D                       Em
And a face like yours couldn't make me scared
 Em                         G
I've been better, with the things I've said
        D                        Em
When I took the lead instead of being led


  Main Riff (4x)

  
 Em                    G
Feed me, none of your lines
         D                          Em
I won't fall for them, 'cause I'll lose
     Em                     G
And hold me, to none of my words
         D                        Em
I don't mean them, when I'm with you

         D                       Em
And the cars streak past with a life inside
    G                   D
Why is my life in your eyes?
         D                     Em
And the windows glow with the hearts they've known
    G                  D
Why is my heart never mine?


 Em                         G
I've been better, when the sky was red
        D                       Em
And a face like yours couldn't make me scared
 Em                         G
I've been better, with the things I've said
        D                        Em
When I took the lead instead of being led
[x2]


  Solo (2x)
  Main theme (8x)


 Em                         G
I've been better, when the sky was red
        D                       Em
And a face like yours couldn't make me scared
 Em                         G
I've been better, with the things I've said
        D                        Em
When I took the lead instead of being led
[x2]

  Main theme going on until song has finished ...

   Em           G              D
I been better, been better, oh oh oh
 Em           G                D
Been better, I been better, oh oh oh
   Em           G              D
I been better, I been better, oh oh oh
 Em           G                D
Been better, been better, oh oh oh

            
            
Suggest correction
Creating personal tab
Creating personal tab
You can edit any tab online and save it as your Personal.

You can edit, replace or remove any tab part or add personal notes – all changes will be seen only by you.

Personal tabs can be accessed anytime from any device, even offline.
Learn more »
comments
print report bad tab
1 comment total.
0 reply
Jacob S 125 May 06, 2014 11:45 AM

One thing is that the solo/ riff would be easier relative to capo because they can be played with it:

e|---------------------------------------------------------------------------|
B|--5-5----------------------------------------------------------------------|
G|------2-2-4-4-0-0----------------------------------------------------------|
D|---------------------------------------------------------------------------|
A|---------------------------------------------------------------------------|
E|---------------------------------------------------------------------------|

Solo (disorted, tabs are without capo):

e|---------------------------------------------------------------------------|
B|---------------------------------------------------------------------------|
G|--4-2-0-0------------4-2-0-0-----------------------------------------------|
D|----------0-0-2--------------0-2-------------------------------------------|
A|---------------------------------------------------------------------------|
E|---------------------------------------------------------------------------|

5 stars though- great tab! :)

guest
You may want to rate the tab now too:
select rating
Wanna post a correction for this tab? Suggest correction