Oops, an error
Loading. Please wait.

Slow Sips Tab

166 views 18 this week
1 commentread comment
1 2 3 4 5
x 3
add to favorites
launch autoscroll
font size
0
reset
how to read this tab
guitar tuner
Autoscroll
slow
fast
+/-
esc
set tempo
stop
Help us to improve Ultimate-Guitar.com Take our survey!
×
Author
Difficulty
Capo
intermediate
8th fret
Strum all string like you would normally play the notes, but the ones tabbed are the ones that you pay 
attention to.


[Intro]

Strumming G/Em/C
e|-3----3---------------------------------------------------------3----------|
B|------------------------------------------------------0/1-0----------------|
G|------------------------------------------------------------2/0------------|
D|-----------0/2-0------0/2--0--0/2--0/2/0----0/2-0-0/2----------------------|
A|-0/2--0/2--------2-0--0/2--2--2----------2--3---3-3-------------2----------|
E|-3----3---------------------------------------------------------3----------|
   G    G                 Em                  C                   G


[Verse]

Strumming G/Em/C
e|-3----3---------------------------------------------------------3----------|
B|------------------------------------------------------0/1-0----------------|
G|------------------------------------------------------------2/0------------|
D|-----------0/2-0------0/2--0--0/2--0/2/0----0/2-0-0/2----------------------|
A|-0/2--0/2--------2-0--0/2--2--2----------2--3---3-3-------------2----------|
E|-3----3---------------------------------------------------------3----------|
   G    G                 Em                  C                   G

e|-3----3---------------------------------------------------------3----------|
B|------------------------------------------------------0/1-0----------------|
G|------------------------------------------------------------2/0----2-------|
D|-----------0/2-0------0/2--0--0/2--0/2/0----0/2-0-0/2----------------------|
A|-0/2--0/2--------2-0--0/2--2--2----------2--3---3-3-------------2----------|
E|-3----3---------------------------------------------------------3--2-------|
   G    G                 Em                  C                   G  D 6/9

Way back
Way back when we lost track
The weeds grow through our walls now
And flowers don't stand tall

Slow sips
Slow sips of your wine dear
I don't want your honesty
I can't take much more


[Chorus]

Strumming
e|-------------------------------------------------------------------------------------3--|
B|--------------------------------------------------------------------------0/2-0---------|
G|--------------------------------------------------------------------------------2/0-----|
D|--2----4----2----2------2----5----2----2------2----4----2----2--0--0/2------------------|
A|--3----5----2----3------3----4----2----3------3----5----2----3--3--3-----------------2--|
E|-------------------------------------------------------------------------------------3--|
    C   +2    Em   C      C   +2    Em   C      C   +2    Em   C                       G


When he holds onto you
Does he hold you tight
I cut from that blade
To suffer at night
The turn of the leaf
The moment that's gone
For searching for right
When nothing was wrong
We counted the nights
As they turned to blue
You want me to wait
Keep waiting for you
So waiting's what I'll do


[Verse]

Strumming G/Em/C
e|-3----3---------------------------------------------------------3----------|
B|------------------------------------------------------0/1-0----------------|
G|------------------------------------------------------------2/0------------|
D|-----------0/2-0------0/2--0--0/2--0/2/0----0/2-0-0/2----------------------|
A|-0/2--0/2--------2-0--0/2--2--2----------2--3---3-3-------------2----------|
E|-3----3---------------------------------------------------------3----------|
   G    G                 Em                  C                   G

Maybe
You got caught up with
Trying to be
A part of your everyday
And that's how it must stay


[Chorus]

Strumming
e|-------------------------------------------------------------------------------------3--|
B|--------------------------------------------------------------------------0/2-0---------|
G|--------------------------------------------------------------------------------2/0-----|
D|--2----4----2----2------2----5----2----2------2----4----2----2--0--0/2------------------|
A|--3----5----2----3------3----4----2----3------3----5----2----3--3--3-----------------2--|
E|-------------------------------------------------------------------------------------3--|
    C   +2    Em   C      C   +2    Em   C      C   +2    Em   C                       G


When he holds onto you
Does he hold you tight
I cut from that blade
To suffer at night
The turn of the leaf
The moment that's gone
For searching for right
When nothing was wrong
We counted the nights
As they turned to blue
You want me to wait
Keep waiting for you
So waiting's what I'll do


[Bridge]

e|-----------------           -----|
B|-----------------           -----|
G|-----------2-----  Repeat   --2--|  Hold out strum
D|--2--4--5--------     5x    -----|    on D 6/9 on the
A|--3--5--7--------           -----|       end of 5th repeat
E|-----------2-----           --2--|


[Chorus]

Strumming
e|-------------------------------------------------------------------------------------3--|
B|--------------------------------------------------------------------------0/2-0---------|
G|--------------------------------------------------------------------------------2/0-----|
D|--2----4----2----2------2----5----2----2------2----4----2----2--0--0/2------------------|
A|--3----5----2----3------3----4----2----3------3----5----2----3--3--3-----------------2--|
E|-------------------------------------------------------------------------------------3--|
    C   +2    Em   C      C   +2    Em   C      C   +2    Em   C                       G


When he holds onto you
Does he hold you tight
I cut from that blade
To suffer at night
The turn of the leaf
The moment that's gone
For searching for right
When nothing was wrong
We counted the nights
As they turned to blue
You want me to wait
Keep waiting for you
So waiting's what I'll do


[Outro]

e|-3----3---------------------------------------------------------3----|
B|------------------------------------------------------0/1-0----------|
G|------------------------------------------------------------2/0------|  End with one 
D|-----------0/2-0------0/2--0--0/2--0/2/0----0/2-0-0/2----------------|     strum on G
A|-0/2--0/2--------2-0--0/2--2--2----------2--3---3-3-------------2----|
E|-3----3---------------------------------------------------------3----|
   G    G                 Em                  C                   G


************************************

| /  Slide up

************************************
Suggest correction
Give kudos to tab author, rate the tab!
1 2 3 4 5
comments
print report bad tab
1 comment total.
+1 reply
guitar0428 48 Oct 21, 2016 12:00 AM

Such a great tab!! Thank you so much for posting! By any chance do you know the chords for Plastic hearts or Sleep by River? Thank you again! LOVE this song!

guest
You may want to rate the tab now too:
select rating
Wanna post a correction for this tab? Suggest correction