Oops, an error
Loading. Please wait.

Ang Balay Ni Mayang Tab

109,044 views 513 this week
13 commentsread comments
1 2 3 4 5
excellent!
x 9
add to favorites
launch autoscroll
font size
0
reset
how to read this tab
guitar tuner
Autoscroll
slow
fast
+/-
esc
set tempo
stop
Help us to improve Ultimate-Guitar.com Take our survey!
×
Author
Difficulty
Capo
novice
10th fret
ANG BALAY NI MAYANG
by: VisPop
Ganahan kaayo ko aning kantaha ba. Nice man gud no? Ay, tama diay, pasagdihi lang 
ni akong tab. Kung naay mali, share-share pud ha. hehe. Mao2 ra bitaw ta. 
pagcomment lang. Sepra nako ni. Akua ra gipaminawan. 

No Capo

Chords:

Intro/Verse/Chorus: C    F 
Bridge: Am     F 

Capo 10


[Intro]

Chords: F#/D G
Rhythm/Lead: (relative in capo)

     F#/D
e|---------------------------------|
B|----------3------3------3--------|
G|----2---2----2------2--2---2--2--|
D|------0--------0------0------0---|
A|---------------------------------|
E|-----(2)------(2)----(2)-----(2)-|

    G
e|---------------------------------|
B|----------3------3------3--------|
G|----0---0----0------0--0---0--0--|
D|------0--------0------0------0---|
A|---------------------------------|
E|-----(3)------(3)----(3)-----(3)-|

0:07

Lead
e|---2------2----------------------|
B|----3---3----3---2---------------|
G|------2--------2-----------------|
D|---------------------------------|
A|---------------------------------|
E|---------------------------------|

e|---0-2-0-------0-2-0-------------|
B|----------3-----------3-0--------|
G|---------------------------------|
D|---------------------------------|
A|---------------------------------|
E|---------------------------------|


[Chorus]

Rhythm:(pluck lang)

     F#/D
e|---------------------------------|
B|----------3------3------3--------|
G|----2---2----2------2--2---2--2--|
D|------0--------0------0------0---|
A|---------------------------------|
E|-----(2)------(2)----(2)-----(2)-|

    G
e|---------------------------------|
B|----------3------3------3--------|
G|----0---0----0------0--0---0--0--|
D|------0--------0------0------0---|
A|---------------------------------|
E|-----(3)------(3)----(3)-----(3)-|

Lyrics:
Anhia ako dri sa balay
Kay gi mingaw nako nimo gamay
Ayaw na pagdugay dugay
Pagdali nag anhi kay
Ganahan ko kitang duha dri mu pahuway (idungan ug pluck ang G)

Verse: (strum;pareho ra gihapon ang chords)
Lyrics:
Baye:
Nag sakit ang akong dughan

Laki:
Ui, inday kay ngano man?

Baye:
Ikaw ra ang hinungdan

Laki:
Ako ra gyud wa nay uban

Baye: 
Makahilak sad kog ahat 

Lake:
Unsa man akong gibuhat

Baye:                     (pause)
Akong kasing kasing imung gikawat

last riff before chorus:

e|---0-2-0-------0-2-0-------------|
B|----------3-----------3-0--------|
G|--------------------------2------|
D|---------------------------------|
A|---------------------------------|
E|---------------------------------|

[Chorus]

pareho rag lyrics pero naa nay tubag si Laki
unya, musulod ang bass ug drums. 
Dili relative sa capo ang chords sa bass: C F.
Ang rhythm, relative sa capo. Strum gihapon: F#/D G
pero ang lead, baga siyang atik-atik, pero dali ra man hinuon:D
dara oh: (timinga lang)p.s: diri ko sugod naglibog. pasaylua!


anhia ako diri sa balay...
e|--------2------0-0-0--2-0-2--------|
B|----3-3---3-3---------------3-0----|
G|-----------------------------------|
D|-----------------------------------|
A|-----------------------------------|
E|-----------------------------------|

kay gimingaw nako nimo gamay...
e|--------2-----0-0-0--2-0-2------2-2|
B|----3-3---3-3---------------3-0--3-|
G|-----------------------------------|
D|-----------------------------------|
A|-----------------------------------|
E|-----------------------------------|

ayaw na pagdugay-dugay...
e|--------2------0---0--0--2-0-2-----|
B|----3-3---3-3----3--3---------3----|
G|-----------------------------------|
D|-----------------------------------|
A|-----------------------------------|
E|-----------------------------------|

ganahan ko kitang duha...
e|--------2---2------0--0--2-0-------|(2X)
B|----3-3---3--3---3--3---------3----|
G|-----------------------------------|
D|-----------------------------------|
A|-----------------------------------|
E|-----------------------------------|

Instrumental/Taghoy2:
ang taghoy naay blending:D
lead
e|---2-----2--------|---0-2-0---------|(1X)
B|-----3-----3----3-|---------3-0-----|
G|--------2----2----|-----------------|
D|------------------|-----------------|
A|------------------|-----------------|
E|------------------|-----------------|

e|---2-----2--------|---2-0-0---------|(1X)
B|-----3-----3----3-|---------3-0-----|
G|--------2----2----|-----------------|
D|------------------|-----------------|
A|------------------|-----------------|
E|------------------|-----------------|

e|---2-----2--------|---0-2-0---------|(2X)
B|-----3-----3----3-|---------3-0-----|
G|--------2----2----|-----------------|
D|------------------|-----------------|
A|------------------|-----------------|
E|------------------|-----------------|


[Bridge]

Bass ang magdala diri.
Chords sa bass:
A----(8counts)F----(8counts)
A----(8counts)F----(8counts)

pwede pud ang rhythm, bagsak2 lang. tag 8 counts gihapon.
ang lead diri kay burag pahuway.


Lyrics:

Ayaw ko pahuwata
Nag luha akong mga mata           (maghinay2 diri)strum once ang G--
Busa hinaot nga unta kitang duha magkita na

unya ang lead mubirada sa last part:

e|------------------|
B|----0-------------|
G|----0-------------|
D|------------------|
A|------------------|
E|------------------|


[Chorus 2]

ang tab diri mao mao sa intro sa rhythm. Timinga ug paminawa lang. 
pero sa matag ika duha nga line, ang lead mubirada ug riff:

e|---0-2-0-------0-2-0-------------|
B|----------3-----------3-0--------|
G|---------------------------------|
D|---------------------------------|
A|---------------------------------|
E|---------------------------------|

lyrics:
Ania nako sa inyong balay
Mag labing labing lang kanunay
Ihatag ko kanimo ang imu kalipay
Maligasun mura ug kamay
Among atop bisag ge anay
Mura ta ug dugo na dili mamatay

unya ang "haay" nga last mu end sa G.



************************************

| (n)  Ghost note 

************************************




mao lang to. nindot ni tugtugon kung daghan mo nga makijam ug mugitara ba. 
Comments/suggestions ibutang lang sa ilalom. o kaya itext ko. Para edit dayon ba. haha

mia.elizaga@yahoo.com
09469750997
CHILL!
Suggest correction
comments
print report bad tab
13 comments total. Showing first comments.
0 reply
kimpantooy 10 wrote on September 21 2013, 08:16 pm

nyc! gnahn ko! :)

0 reply
m_agazile 42 wrote on September 29 2013, 04:27 am

haha. tama?

0 reply
ukyo15 10 wrote on November 4 2013, 03:55 pm

e---------------------------------|
|B----------3------3------3--------|
|G----2---2----2------2--2---2--2--|
|D------0--------0------0------0---|
|A---------------------------------|
|E-----(2)------(2)----(2)-----(2)-|

unsa pasabot sa naay parentheses? (2)

guest
You may want to rate the tab now too:
select rating
Wanna post a correction for this tab? Suggest correction