Oops, an error
Loading. Please wait.

Preview Tab

234 views 1 this week
no commentswrite comment
1 2 3 4 5
please rate
add to favorites
launch autoscroll
font size
0
reset
how to read this tab
guitar tuner
Autoscroll
slow
fast
+/-
esc
set tempo
stop
Help us to improve Ultimate-Guitar.com Take our survey!
×
Author
Difficulty
novice
-------------------------------------------------------------------------------
                             PREVIEW - Kym Campbell
-------------------------------------------------------------------------------
Tabbed by: kiwisurf
Email:

Tuning: Standard

A beautiful song written by a magnificent woman. 

The plucking pattern in the intro/verse is a little trickey, but the note order 
shown here will see you right.

As at June 2010, Kym Campbell was signed with Medici Studios in Geelong, Victoria, Australia.

Check out www.kymcampbell.com for her official website.



Intro/Verse:

e|----0-0-0--0----2-2--2--2p------0-0-0--0----2-2--2--2p---------------------|
B|----1-1-1--1p---2-2--2--2p------1-1-1--1p---2-2--2--2p---------------------|
G|----2-0-0--0----0-0--0--0-------2-0-0--0----0-0--0--0----------------------|
D|-3----------------------------3--------------------------------------------|
A|------3---3------------2----------3---3------------2-----------------------|
E|---------------3-----3---------------------3-----3-------------------------|

e|----0-0-0--0----2-2--2--2p------0-0-0-----2--------------------------------|
B|----1-1-1--1p---2-2--2--2p------1-1-1-----2--------------------------------|
G|----2-0-0--0----0-0--0--0-------2-0-0-----0--------------------------------|
D|-3----------------------------3--------------------------------------------|
A|------3---3------------2----------3---3-0----------------------------------|
E|---------------3-----3--------------------3--------------------------------|

VERSE 1
Oh I remember that day when everything just dropped away. 
Except you and me, so why can’t we just let it be? 
Oh why can’t we just let it be.

And no more questioning the complexity, let’s just agree, 
to come together and enjoy the sweet simplicity of you me. 
Oh of you and me.

CHORUS
     (Am)              (F)              (G)            (Cadd9)
And it’s to good to be true when I’m standing there with you. 
          (Am)        (F)        (G)              (Cadd9)
And I have so much to tell you I hope it’s just a preview 
    (Am)(F)  (G)(Cadd9)
of a time to come because 
     (Am)        (F)     (G)              (Cadd9)
I’m telling everybody, I hope its just a preview.

VERSE 2
Because our bodies fit together like a perfect lock and key 
so you can touch me all night, holding me so lovingly. 
Oh holding me so lovingly.
There was no time for us to say goodbye, the maybe to solidify, 
to hold you, to know you, to grow with you.

CHORUS

VERSE 3
Because you make me want to go out and be all that I can be and 
lying next to you is so good that I can barely breath.
So good that I can barely breath.

CHORUS



************************************

| /   slide up
| \   slide down
| h   hammer-on
| p   pull-off
| ~   vibrato
| +   harmonic
| x   Mute note
| b   Bend
| pb  Pre-bend
| br  Bend release
| pbr Pre-bend release
| brb Bend release bend

************************************
Suggest correction
What's this?
You can suggest a correction to this tab. Community and Mods will review your correction and vote to approve or reject it.
comments
We did not receive enough feedback on this tab! Please rate:
print report bad tab
1 2 3 4 5
guest
You may want to rate the tab now too:
select rating
Please do not post tabs as comments. Select "correction" instead!