Oops, an error
Loading. Please wait.

Substream bass

1,452 views 3 this week
no commentswrite comment
1 2 3 4 5
2 more votes to show rating
add to favorites
×
Save as Personal and add changes to this tab that will be seen only by you. Learn more ›
×
You can save this tab as Personal to edit and correct it or add notes. All changes will be seen only by you. Learn more »
launch autoscroll
font size
0
reset
guitar tuner
edit
Autoscroll
slow
fast
+/-
esc
set tempo
stop
Author
Difficulty
Kyoto Jazz Massive - Substream
Album: Spirit of the Sun (2002)
Transcription by: Peter Kulcsar



Intro:

    s
G|--------------------|
D|--------------------|
A|--5\----------------|
E|--------------------|

    s s s s s
G|------------------------|
D|------------------------|
A|--------3-5\------------|
E|--3-5-6-----------------|

     s p s p s p s p s
G|-----5---4---5---6------|
D|------------------------|
A|--x3---2---3---4---5\---|
E|------------------------|

    s   s   s   s
G|------------------------|
D|------------------------|
A|------------5\----------|
E|--6h5x5h3-1-------------|

    s s s s s   s   p p     s p s p
G|------------------5-7-------5---6----------|
D|-------------------------------------------|
A|--------3-5h7-5~---------x3---4------------|
E|--3-5-6------------------------------------|



Main riff or verse:

     s p p   s s s   s p p   s s s s s s sss    s s ss s s s    
G|-----7-5h7-----------7-5h7------------------------------------|
D|--------------------------------------------------------------|
A|---5-------5-5-0h3-5-------5-5-3-3-1-1-111----3-3-3x----------|
E|-----------------------------------------------------5-5-5----|

     s p p   s s s   s p p   s p s s s s s sss    s s ss s s s
G|-----7-5h7-----------7-5h7---x--------------------------------|
D|--------------------------------------------------------------|
A|---5-------5-5-0h3-5-------5---5-3-3-1-1-111----3-3-3x--------|
E|-------------------------------------------------------5-5-5--|



Bridge or chorus:

                    s   p s
G|----------------------5--------------------|
D|-------------------------------------------|
A|--55-55-55--------0h3---3------------------|  2x
E|-----------3-3-3~--------------------------|  

                    s   p s
G|----------------------5--------------------|
D|-------------------------------------------|
A|--33-33-33--------0h3---3------------------|
E|-----------3-3-3~--------------------------|

G|-------------------------------------------|
D|-------------------------------------------|
A|--55-55-55---------------------------------|
E|-----------3-3-33-1~-----------------------|

                    s   p s
G|----------------------5--------------------|
D|-------------------------------------------|
A|--55-55-55--------0h3---3------------------|  2x
E|-----------3-3-3~--------------------------|  

                    s   p s
G|----------------------5--------------------|
D|-------------------------------------------|
A|--33-33-33--------0h3---3------------------|
E|-----------3-3-3~--------------------------|

G|-------------------------------------------|
D|-------------------------------------------|
A|--33-33-33-3-3-3-33-33-33-3-3-3-...--------|
E|-------------------------------------------|

After the first bridge/chorus you start the main riff/verse with this riff:

     s p s p
G|-----5---6--------|
D|------------------|
A|--x3---4----------|
E|------------------|



s - slap
p - pop
x - muted note (in this song usually slapped)
\ - slide
h - hammer on & pull off

http://www.kyotojazzmassive.com/
Suggest correction
Creating personal tab
Creating personal tab
You can edit any tab online and save it as your Personal.

You can edit, replace or remove any tab part or add personal notes – all changes will be seen only by you.

Personal tabs can be accessed anytime from any device, even offline.
Learn more »
Give kudos to tab author, rate the tab!
1 2 3 4 5
comments
print report bad tab
guest
You may want to rate the tab now too:
select rating
Wanna post a correction for this tab? Suggest correction