Oops, an error
Loading. Please wait.

Terrorists Tab

157 views 1 this week
no commentswrite comment
1 2 3 4 5
please rate
add to favorites
launch autoscroll
font size
0
reset
how to read this tab
guitar tuner
Autoscroll
slow
fast
+/-
esc
set tempo
stop
Help us to improve Ultimate-Guitar.com Take our survey!
×
Contributor
Difficulty
Tuning
planck 50
intermediate
D# G# C# F# A# D#
-------------------------------------------------------------------------------
                             "TERRORISTS" - KYSHERA
-------------------------------------------------------------------------------
Tabbed by: Planck
E-mail: info@konicrecords.com

Tuning: Eb, Ab, Db, Gb, Bb, Eb

INTRO
4/4

   **Random FX Noise
|--+++++++++----------------------------------------------------------------|
|--+++++++++----------------------------------------------------------------|
|--+++++++++----------------------------------------------------------------|
|--+++++++++----------------------------------------------------------------|
|--+++++++++----------------------------------------------------------------|
|--+++++++++----------------------------------------------------------------|

|---------------------------------------------------------------------------|
|---------------------------------------------------------------------------|
|---------------------------------------------------------------------------| X4
|----------------------------5----------------------------------------------|
|--------------16\-----4--4-------------------------------------------------|
|--0--00--/15-------3-------------------------------------------------------|

6/8                     5/8               7/8 
|-----------------------------------------------------------------14--------|
|--------------------------------------------------------x-x-x-x--13--------|
|--------------------------------------------------------x-x-x-x--12--------|
|--------------------------------------------------------x-x-x-x------------|
|--4-----------------5--4-----------------4--------------x-x-x-x------------|
|-----0--4--5--6--7--------0--4--5--6--7-----0--4--5--6---------------------|

6/8                        4/4 - "Which came first? Puppet or the String"   
|------------------------------------------------|--0--0--0--0--------------|
|--15--14--13--12--11--10------------------------|--0--0--0--0--------------|
|--15--14--13--12--11--10--9-9-9---9-9-9---9-----|--3--3--3--4--------------|
|--------------------------101010--101010--9-----|--2--2--2--2--------------|
|--13--12--11--10--9---8---7-7-7---7-7-7---7-----|--------------------------|
|------------------------------------------------|--------------------------|

'A' Section - "Who built the stage"
4/4
|--0--0--0---0--0--0--0---0--0--0---0--0--0--0---0--0--0---0--0--0--0-------|
|--0--0--0---0--0--0--0---0--0--0---0--0--0--0---0--0--0---0--0--0--0-------|
|--5--5--4---3--3--3--4---5--5--4---3--3--3--4---5--5--4---3--3--3--4-------|
|--2--2--2---2--3--3--3---2--2--2---2--3--3--3---2--2--2---2--3--3--3-------|
|---------------------------------------------------------------------------|
|---------------------------------------------------------------------------|

'B' Section - "Not a space"
   Am               GM7add6/A
|--0--0--0----0--0--0-------------------------------------------------------|
|--1--1--1----1--1--0-------------------------------------------------------|
|--2--2--2----2--2--0-------------------------------------------------------|
|--2--2--2----2--2--4-------------------------------------------------------|
|--0--0--0----0--0--0-------------------------------------------------------|
|----------------------0--00-10-0--0-0--00-10-0--0--00-10-0--0-0--00-10-0---|

   GM7              Asus2
|-------------------0-------------------------------------------------------|
|--3--3--3----3--3--0-------------------------------------------------------|
|--4--4--4----4--4--2-------------------------------------------------------|
|--4--4--4----4--4--2-------------------------------------------------------|
|-------------------0-------------------------------------------------------|
|--3--3--3----3--3-----0--00-10-0--0-0--00-10-0--0--00-10-0--0-0--00-10-0---|

'C' Section - "Poverty"
5/8
|---------------------------------------------------------------------------|
|---------------------------------------------------------------------------|
|---------------------------------------------------------------------------| X8
|-------------4--5----------------------------------------------------------|
|---------------------------------------------------------------------------|
|--0--12\--3----------------------------------------------------------------|

BREAK
6/8          **Random noise for 4 bars
|--+--+--+--+---------------------------------------------------------------|
|--+--+--+--+---------------------------------------------------------------|
|--+--+--+--+---------------------------------------------------------------| 
|--+--+--+--+---------------------------------------------------------------|
|---------------------------------------------------------------------------|
|---------------------------------------------------------------------------|

'D' Section - "We live in a'
   Em      F#7sus4 A       G
|--0-0-0---0-0-0------------------------------------------------------------|
|--0-0-0---0-0-0------------------------------------------------------------|
|--0-0-0---3-3-3---2-2-2----------------------------------------------------| X2
|--2-2-2---4-4-4---2-2-2---5-5-5--------------------------------------------|
|--2-2-2---4-4-4---0-0-0---5-5-5--------------------------------------------|
|--0-0-0---2-2-2-----------3-3-3--------------------------------------------|

   'Emperor put some clothes on'
   Em      F#7sus4 A       G
|--0-0-0---0-0-0------------------------------------------------------------|
|--0-0-0---0-0-0------------------------------------------------------------|
|--0-0-0---3-3-3---2-2-2----------------------------------------------------| X4
|--2-2-2---4-4-4---2-2-2---5-4-3--------------------------------------------|
|--2-2-2---4-4-4---0-0-0---5-4-3--------------------------------------------|
|--0-0-0---2-2-2-----------3-2-1--------------------------------------------|

'E' Section - "Will it always"
   C#m                     A   
|---------------------------------------------------------------------------|
|---------------------------------------------------------------------------|
|---------------------------------------------------------------------------| X2
|--------6--6--------6--6--------2--2--------2--2---------------------------|
|--4--4--------4--4--------0--0--------0--0---------------------------------|
|---------------------------------------------------------------------------|

'F' Section - "Desperate race"
   C#madd9           FM7               C#madd9           FM7
|-----------------------------0-----------------------------------0---------|
|-----------5--------------1-----1--------------5--------------1-----1------|
|--------8-----8--------2-----------2--------8-----8--------2-----------2---|
|-----6-----------6--3--------------------6-----------6--3------------------|
|--4-----------------------------------4------------------------------------|
|---------------------------------------------------------------------------|

   F#7add4           FM7               F#7add9           FM7   
|--0--0--0--0--0--0--------------------0--0--0--0--0--0---------------------|
|--0--0--0--0--0--0--1--1--1--1--1--1--0--0--0--0--0--0--1--1--1--1--1--1---|
|--3--3--3--3--3--3--2--2--2--2--2--2--3--3--3--3--3--3--2--2--2--2--2--2---|
|--4--4--4--4--4--4--2--2--2--2--2--2--4--4--4--4--4--4--2--2--2--2--2--2---|
|--4--4--4--4--4--4--------------------4--4--4--4--4--4---------------------|
|--2--2--2--2--2--2--1--1--1--1--1--1--2--2--2--2--2--2--1--1--1--1--1--1---|

BREAK
   Eadd9 - Hold for 2 bars.
|--0------------------------------------------------------------------------|
|--0------------------------------------------------------------------------|
|--3------------------------------------------------------------------------| 
|--4------------------------------------------------------------------------|
|--2------------------------------------------------------------------------|
|--0------------------------------------------------------------------------|

'G' Section - "Fanatical, Imperial"
   **Random noise     A  
|--+-+-+-+-+-+-+------------------------------------------------------------|
|--+-+-+-+-+-+-+------------------------------------------------------------|
|--+-+-+-+-+-+-+------6---6-6-6-6-6--6---6-6-6-6-6--------------------------| X2
|--+-+-+-+-+-+-+------5h7-7-7-7-7-7--5h7-7-7-7-7-7--------------------------|
|---------------------0---0-0-0-0-0--0---0-0-0-0-0--------------------------|
|---------------------------------------------------------------------------|

'H' Section - "Jesus"
   C augmented4 add9            A7add11
|---------------------------------------------------------------------------|
|-----------3-------------3-------------3-------------3---------------------|
|-------0-----0-------0-----0-------6-----6-------6-----6-------------------| 
|----4----4-----4---4---4-----4---5---5-----5---5---5-----5-----------------|
|--3--------------3-------------0-------------0-----------------------------|
|---------------------------------------------------------------------------|

BREAK
4/4
   **Random noise, stop, then Dm6
|--+-+-+-+-+-+-+--------------1---------------------------------------------|
|--+-+-+-+-+-+-+--------------0---------------------------------------------|
|--+-+-+-+-+-+-+--------------2---------------------------------------------| 
|--+-+-+-+-+-+-+--------------0---------------------------------------------|
|--+-+-+-+-+-+-+------------------------------------------------------------|
|--+-+-+-+-+-+-+------------------------------------------------------------|

'C' Section repeat - Electro Drum loop - "Pillage"

BREAK
4/8
|--+-+-+-+------------------------------------------------------------------|
|--+-+-+-+------------------------------------------------------------------|
|--+-+-+-+------------------------------------------------------------------| 
|--+-+-+-+------------------------------------------------------------------|
|---------------------------------------------------------------------------|
|----------12\--------------------------------------------------------------|

'A' Section variation
4/4
|--0--0--0---0--0--0--0---0--0--0---0--0--0--0------------------------------|
|--0--0--0---0--0--0--0---0--0--0---0--0--0--0------------------------------|
|--5--5--4---3--3--3--4---5--5--4---3--3--3--4------------------------------| X2
|--2--2--2---2--3--3--3---2--2--2---2--3--3--3------------------------------|
|---------------------------------------------------------------------------|
|---------------------------------------------------------------------------|

'E' Section variation
6/8
   C#m       A7        C#m       A7 
|--4444444---5555555---4444444---5555555------------------------------------|
|--5555555---5555555---5555555---5555555------------------------------------|
|--6666666---6666666---6666666---6666666------------------------------------|
|--6666666---5555555---6666666---5555555------------------------------------|
|--4444444---7777777---4444444---7777777------------------------------------|
|------------5555555-------------5555555------------------------------------|

'F' Section repeat - "What we swallow"

'I' Section
4/4
|---------------------------------------------------------------------------|
|---------------------------------------------------------------------------|
|--99-9-88-8-7---7-----6-----------0----------------------------------------| 
|--99-9-88-6-7---7--------5-----3-------------------------------------------|
|--77-7-66-6-5---5--4-------------------------------------------------------|
|----------------------------3----------------------------------------------|

6/8

'G' Section repeat - "Rule by a Cartel"

'H' Section repeat - "Jesus"

BREAK
4/4  **Random Noise    "Shoot!"       "Shoot!"       "Shoot!"       "Shoot!"
|----+-----+-----+------+--------+-+-+-+--------+-+-+-+--------+-+-+-+------|
|----+-----+-----+------+--------+-+-+-+--------+-+-+-+--------+-+-+-+------|
|----+-----+-----+------+--------+-+-+-+--------+-+-+-+--------+-+-+-+------|
|----+-----+-----+------+--------+-+-+-+--------+-+-+-+--------+-+-+-+------|
|---------------------------------------------------------------------------|
|---------------------------------------------------------------------------|

INTRO RIFF Repeat

|---------------------------------------------------------------------------|
|---------------------------------------------------------------------------|
|---------------------------------------------------------------------------| X4
|----------------------------5----------------------------------------------|
|--------------16\-----4--4-------------------------------------------------|
|--0--00--/15-------3-------------------------------------------------------|

'J' Section - "Lets start a fire"                                   **Pick
6/8                                                                   Slide up
|--0-0-0-0-0-0-0-0-0-0-0-0-------------------------------------|-------------|
|--0-0-0-0-0-0-0-0-0-0-0-0-------------------------------------|------+/+----|
|--9-9-9-8-8-8-7-7-7-6-6-6----5--5-----------------------------|------+/+----| 
|--9-9-9-8-8-8-7-7-7-6-6-6----5--5-----2--2-----4--4-----7--7--|------+/+----|
|--7-7-7-6-6-6-5-5-5-4-4-4-3-----------2--2-----4--4-----7--7--|-------------|
|-----------------------------------0--------2--------5--------|--0----------|

'D' Section repeat - "There is nothing"

4/4
 
'A' Section variation repeat

'B' Section variation
   Am               GM7add6/A
|--0--0--0----0--0--0-------------------------------------------------------|
|--1--1--1----1--1--0-------------------------------------------------------|
|--2--2--2----2--2--0-------------------------------------------------------|
|--2--2--2----2--2--4-------------------------------------------------------|
|--0--0--0----0--0--0-------------------------------------------------------|
|----------------------0--00-10-0--0-0--00-10-0--0--00-10-0--0-0--00-10-0---|

   GM7              Asus2                                        **Triplets**
|-------------------0-------------------------------------------------------|
|--3--3--3----3--3--0-------------------------------------------------------|
|--4--4--4----4--4--2-------------------------------------------------------|
|--4--4--4----4--4--2-------------------------------------------------------|
|-------------------0-------------------------------------------------------|
|--3--3--3----3--3-----0--00-10-0--0-0--00-10-0--0--00-10-0--0-0-10-9-8-7-6-|

'K' Section - "When the well's dry"
   E    FM7aug4  A7     CM7    D9add4 FM7aug4 A7     CM7       
|--0------0------0------3------0------0-------0------3----------------------|
|--0------0------2------5------3------0-------2------5----------------------|
|--1------2------0------4------0------2-------0------4----------------------| 
|--2------3------2------5------4------3-------2------5----------------------|
|--2------3------0------3------5------3-------0------3----------------------|
|--0------1---------------------------1-------------------------------------|


************************************

| /   slide up
| \   slide down
| h   hammer-on
| p   pull-off
| ~   vibrato
| +   harmonic
| x   Mute note
| b   Bend
| pb  Pre-bend
| br  Bend release
| pbr Pre-bend release
| brb Bend release bend

************************************
Suggest correction new What's this?
You can suggest a correction to this tab. Community and Mods will review your correction and vote to approve or reject it.
comments
We did not receive enough feedback on this tab! Please rate:
print report bad tab
1 2 3 4 5
guest
You may want to rate the tab now too:
select rating
Please do not post tabs as comments. Select "correction" instead!