Oops, an error
Loading. Please wait.

Asteroid tab

version 2
version 2

Whole song

Interactive

by Kyuss
26,403 views 30 this week
8 commentsread comments
1 2 3 4 5
x 16
add to favorites
×
Save as Personal and add changes to this tab that will be seen only by you. Learn more ›
×
You can save this tab as Personal to edit and correct it or add notes. All changes will be seen only by you. Learn more »
launch autoscroll
font size
0
reset
how to read this tab
guitar tuner
edit
Autoscroll
slow
fast
+/-
esc
set tempo
stop
Kyuss - Asteroid
Welcome to Sky Valley

C |------------------------------------------------------|
G |------------------------------------------------------|
Eb|------------------------------------------------------|
Bb|------------------------------------------------------|
F |----7-----7---9-7---7-7-----7-5-/10-7---7-----7---9-7-|
C |--0---0-0---8---0-0-----0-0-----------0---0-0---8---0-| x3

C |-------------------------|
G |-------------------------|
Eb|-------------------------|
Bb|-------------------------|
F |---10h12p10-10\9-9\7-5-4-|
C |-0-----------------------|

above riffs x3

C |-----------------------|
G |-----------------------|
Eb|-----------------------|
Bb|-------12----11----7-6-|
F |-------10----9-----5-4-|
C |--0-00----00----00-----| x3

C |---------------------------------------|
G |---------------------------------------|
Eb|---------------------------------------|
Bb|---------------------------------------|
F |-------------------10-9----------12-10-|
C |-0-10-12-0-10-12-0------0-10-9-0-------|

C |-----------------------|
G |-----------------------|
Eb|-----------------------|
Bb|-------12----11----7-6-|
F |-------10----9-----5-4-|
C |--0-00----00----00-----| x3


C |------------------------------------------|
G |------------------------------------------|
Eb|------------------------------------------|
Bb|------------------------------------------|
F |-------------------12-10----------------7-|
C |-0-10-12-0-10-12-0-------0-10-12-0-10-9-0-|

  I'm not completely done with this part but I will update it when its finished
C |------------------------------------------------------|
G |------------------------------------------------------|
Eb|------------------------------------------------------|
Bb|------------------------------------------------------|
F |----7-----7---9-7---7-7-----7-5-/10-7---7-----7---9-7-|
C |--0---0-0---8---0-0-----0-0-----------0---0-0---8---0-| x3

C |-------------------------|
G |-------------------------|
Eb|-------------------------|
Bb|-------------------------|
F |---10h12p10-10\9-9\7-5-4-|
C |-0-----------------------|

above x2

C |----------------------|
G |----------------------|
Eb|-12-12-12-12-12-16\12-|
Bb|-10-10-10-10-10-14\10-|
F |----------------------|
C |----------------------| x2

C |----------------------------|
G |----------------------------|
Eb|-12-12-12-12-12-14/16-14/16-|
Bb|-10-10-10-10-10-12/14-12/14-|
F |----------------------------|
C |----------------------------|

C |----------------------|
G |----------------------|
Eb|-12-12-12-12-12-16\12-|
Bb|-10-10-10-10-10-14\10-|
F |----------------------|
C |----------------------| x2

C |---------------------------|
G |---------------------------|
Eb|-12-12-12-12-12-12-12-11-9-|
Bb|-10-10-10-10-10-10-10-9--7-|
F |---------------------------|
C |---------------------------|

C |--------|
G |--------|
Eb|--------|
Bb|--------|
F |--------|
C |-0-7///-

C |------------------------------------------------------|
G |------------------------------------------------------|
Eb|------------------------------------------------------|
Bb|------------------------------------------------------|
F |----7-----7---9-7---7-7-----7-5-/10-7---7-----7---9-7-|
C |--0---0-0---8---0-0-----0-0-----------0---0-0---8---0-| x3

C |-------------------------|
G |-------------------------|
Eb|-------------------------|
Bb|-------------------------|
F |---10h12p10-10\9-9\7-5-4-|
C |-0-----------------------|

C |-----------------------|
G |-----------------------|
Eb|-----------------------|
Bb|-------12----11----7-6-|
F |-------10----9-----5-4-|
C |--0-00----00----00-----| x3

C |---------------------------------------|
G |---------------------------------------|
Eb|---------------------------------------|
Bb|---------------------------------------|
F |-------------------10-9----------12-10-|
C |-0-10-12-0-10-12-0------0-10-9-0-------|

C |-----------------------|
G |-----------------------|
Eb|-----------------------|
Bb|-------12----11----7-6-|
F |-------10----9-----5-4-|
C |--0-00----00----00-----| x3

C |---------------------------------------|
G |---------------------------------------|
Eb|---------------------------------------|
Bb|---------------------------------------|
F |-------------------10-9----------12-10-|
C |-0-10-12-0-10-12-0------0-10-9-0-------|

C |----------------------------------------|
G |----------------------------------------|
Eb|----------------------------------------|
Bb|----------------------------------------|
F |-------------------12-10----------------|
C |-0-10-12-0-10-12-0-------0-10-12-0-10-9-|

the two riffs above x13



************************************

| h  Hammer-on
| p  Pull-off
| /  Slide up
| \  Slide down

************************************
Suggest correction
Creating personal tab
Creating personal tab
You can edit any tab online and save it as your Personal.

You can edit, replace or remove any tab part or add personal notes – all changes will be seen only by you.

Personal tabs can be accessed anytime from any device, even offline.
Learn more »
comments
print report bad tab
8 comments total. Showing first comments.
0 reply
Janosch-III 10 Mar 22, 2007 06:13 AM

i really don't know how i should rate this, the tab doesn't even say which tuning it's in.. most Kyuss songs are (easier) to play with your guitar tuned down 2 whole steps...

+1 reply
Janosch-III 10 Mar 23, 2007 05:32 AM

jeah. the tab is in the tuning C - F - A# - D# - G - C
and then it's pretty good!

+2 reply
Tyler Durden 20 Oct 15, 2007 08:35 PM

Yes Kyuss plays C Standard, what cant people get it right - this is a good tab

guest
You may want to rate the tab now too:
select rating
Wanna post a correction for this tab? Suggest correction