Oops, an error
Loading. Please wait.

Demon Cleaner Bass Tab

version 1
version 1

Whole song

Interactive

14,248 views 30 this week
no commentswrite comment
1 2 3 4 5
excellent!
x 8
add to favorites
launch autoscroll
font size
0
reset
guitar tuner
Autoscroll
slow
fast
+/-
esc
set tempo
stop
Help us to improve Ultimate-Guitar.com Take our survey!
×
Author
Song: Demon Cleaner
Artist: Kyuss
Album: Welcome to Sky Valley
Year: 1994
Tuning: C, F, Bb, Eb

Since I have seen no bass tabs for this song, I figured that I should make the 1st one.

Intro: (0:10)
Eb|-------------------------------------------------------|
Bb|-----------------------------12-12-12-12---10-10-10-10-| 6x
F |-------------------------------------------------------|
C |-10-10-10-10---10-10-10-10-----------------------------|


Main riff: (0:38) note: played throughout most of the song.
Eb|-----------------------|----------------------------|
Bb|-------------12----15\-|-------------12----------13-|
F |-------10h12-----------|-------10h12----10-10h12----|
C |-10-10----------10-----|-10-10----------------------|
  {      3x               }   play after the 3rd time


Bridge: (2:50)
Eb|-------------------------------------------------|
Bb|-------------------------------------------------|
F |-------------------------------------------------|
C |-10-10-10-10-10-10-10-10-10-10-10-10-10-10-10-10-|

Eb|-------------------------------------------------|
Bb|-------------------------------------------------|
F |-------------------------------------------------|
C |-12-12-12-12-12-12-12-12-12-12-12-12-12-12-12-12-|

Eb|-------------------------------------------------|
Bb|-------------------------------------------------|
F |-13-13-13-13-13-13-13-13-13-13-13-13-13-13-13-13-|
C |-------------------------------------------------|

Eb|-------------------------------------------------|
Bb|-------------------------------------------------|
F |-10-10-10-10-10-10-10-10-10-10-10-10-10-10-10-10-|
C |-------------------------------------------------|

Eb|-------------------------------------------------|
Bb|-12-12-12-12-12-12-12-12-12-12-12-12-12-12-12-12-|
F |-------------------------------------------------|
C |-------------------------------------------------|

Eb|-------------------------------------------------|
Bb|-14-14-14-14-14-14-14-14-14-14-14-14-14-14-14-14-|
F |-------------------------------------------------|
C |-------------------------------------------------|

Eb|-------------------------------------------------|
Bb|-------------------------------------------------|
F |-13-13-13-13-13-13-13-13-13-13-13-13-13-13-13-13-|
C |-------------------------------------------------|

Eb|-------------------------------------------------|
Bb|-------------------------------------------------|
F |-10-10-10-10-10-10-10-10-10-10-10-10-10-10-10-10-|
C |-------------------------------------------------|


Bridge part 2: (3:27) play entire section 2x (part 2)
Eb|----------------------------------------------------|
Bb|-------------------------12-12-12-12-12-12-12-12-12-|
F |-------------------10h12----------------------------|
C |-10-10-10-10-10-10----------------------------------|

Eb|----------------------------------------------------|
Bb|-------------------------14-14-14-14-14-14-14-14-14-|
F |-------------------12h14----------------------------|
C |-12-12-12-12-12-12----------------------------------|

Eb|-------------------------15-15-15-15-15-15-15-15-15\-|
Bb|-------------------13h15-----------------------------|
F |-13-13-13-13-13-13-----------------------------------|
C |-----------------------------------------------------|

Eb|-----7-----7-----7-----7-----7-|
Bb|-5-5---5-5---5-5---5-5---5-5---|
F |-------------------------------|
C |-------------------------------|



Outro part 1: (3:46)
Eb|-------------------------------------------------|
Bb|-------------------------------------------------|
F |-------------------------------------------------|
C |-10-10-10-10-10-10-10-10-10-10-10-10-10-10-10-10-|

Eb|-------------------------------------------------|
Bb|-------------------------------------------------|
F |-------------------------------------------------|
C |-12-12-12-12-12-12-12-12-12-12-12-12-12-12-12-12-|

Eb|-------------------------------------------------|
Bb|-------------------------------------------------|
F |-13-13-13-13-13-13-13-13-13-13-13-13-13-13-13-13-|
C |-------------------------------------------------|

Eb|-----7-----7-----7-----7-----7-|
Bb|-5-5---5-5---5-5---5-5---5-5---|
F |-------------------------------|
C |-------------------------------|

Eb|-------------------------------------------------|
Bb|-------------------------------------------------|
F |-------------------------------------------------|
C |-10-10-10-10-10-10-10-10-10-10-10-10-10-10-10-10-|

Eb|-------------------------------------------------|
Bb|-------------------------------------------------|
F |-------------------------------------------------|
C |-12-12-12-12-12-12-12-12-12-12-12-12-12-12-12-12-|

Eb|-------------------------------------------------|
Bb|-------------------------------------------------|
F |-13-13-13-13-13-13-13-13-13-13-13-13-13-13-13-13-|
C |-------------------------------------------------|

Eb|-------------------------------------------------|
Bb|-------------------------------------------------|
F |-10-10-10-10-10-10-10-10-10-10-10-10-10-10-10-10-|
C |-------------------------------------------------|


Outro part 2, guitar solo: (4:05)
Eb|-------14-------14-------14-------14-------14\-|
Bb|-12-12----12-12----12-12----12-12----12-12-----|
F |-----------------------------------------------|
C |-----------------------------------------------|

Eb|-------12-------12-------12-------12-------12\-|
Bb|-10-10----10-10----10-10----10-10----10-10-----|
F |-----------------------------------------------|
C |-----------------------------------------------|

Eb|-----10-----10-----10-----10-----10\-|
Bb|-8-8----8-8----8-8----8-8----8-8-----|
F |-------------------------------------|
C |-------------------------------------|

Eb|-----7-----7-----7-----7-----7-|
Bb|-5-5---5-5---5-5---5-5---5-5---|
F |-------------------------------|
C |-------------------------------|

Eb|----------------------------------------------------|
Bb|-------------------------12-12-12-12-12-12-12-12-12-|
F |-------------------10h12----------------------------|
C |-10-10-10-10-10-10----------------------------------|

Eb|----------------------------------------------------|
Bb|-------------------------14-14-14-14-14-14-14-14-14-|
F |-------------------12h14----------------------------|
C |-12-12-12-12-12-12----------------------------------|

Eb|-------------------------15-15-15-15-15-15-15-15-15\-|
Bb|-------------------13h15-----------------------------|
F |-13-13-13-13-13-13-----------------------------------|
C |-----------------------------------------------------|

Eb|-----7-----7-----7-----7-----7-|
Bb|-5-5---5-5---5-5---5-5---5-5---|
F |-------------------------------|
C |-------------------------------|

Eb|----------------------------------------------------|
Bb|-------------------------12-12-12-12-12-12-12-12-12-|
F |-------------------10h12----------------------------|
C |-10-10-10-10-10-10----------------------------------|

Eb|----------------------------------------------------|
Bb|-------------------------14-14-14-14-14-14-14-14-14-|
F |-------------------12h14----------------------------|
C |-12-12-12-12-12-12----------------------------------|

Eb|----------------------------------------------------|
Bb|----------------------------------------------------|
F |-13-13-13-13-13-13-13-13-13-13-13-13-13-13-13-13-13-|
C |----------------------------------------------------|

Eb|-----7-----7-----7-----7-----7-|
Bb|-5-5---5-5---5-5---5-5---5-5---|
F |-------------------------------|
C |-------------------------------|

Eb|----------------------------------------------------|
Bb|-------------------------12-12-12-12-12-12-12-12-12-|
F |-------------------10h12----------------------------|
C |-10-10-10-10-10-10----------------------------------|

Eb|----------------------------------------------------|
Bb|----------------------------------------------------|
F |----------------------------------------------------|
C |-12-12-12-12-12-12-12-12-12-12-12-12-12-12-12-12-12-|

Eb|----------------------------------------------------|
Bb|----------------------------------------------------|
F |-13-13-13-13-13-13-13-13-13-13-13-13-13-13-13-13-13-|
C |----------------------------------------------------|

Eb|----------------------------------------------------|
Bb|----------------------------------------------------|
F |-10-10-10-10-10-10-10-10-10-10-10-10-10-10-10-10-10-|
C |----------------------------------------------------|

Eb|----------------------------------------------------|
Bb|----------------------------------------------------|
F |----------------------------------------------------|
C |-10-10-10-10-10-10-10-10-10-10-10-10-10-10-10-10-10-|

Eb|----------------------------------------------------|
Bb|----------------------------------------------------|
F |----------------------------------------------------|
C |-12-12-12-12-12-12-12-12-12-12-12-12-12-12-12-12-12-|

Eb|----------------------------------------------------|
Bb|----------------------------------------------------|
F |-13-13-13-13-13-13-13-13-13-13-13-13-13-13-13-13-13-|
C |----------------------------------------------------|

Eb|-----7-----7-----7-----7-----7-|
Bb|-5-5---5-5---5-5---5-5---5-5---|
F |-------------------------------|
C |-------------------------------|

fades out

Tab legend:
h = hammer on
p = pull off
\ = slide down
/ = slide up
b = bend
~ = vibrato

Thats the song, I hope you enjoy it.
Suggest correction new What's this?
You can suggest a correction to this tab. Community and Mods will review your correction and vote to approve or reject it.
comments
print report bad tab
guest
You may want to rate the tab now too:
select rating
Please do not post tabs as comments. Select "correction" instead!