Oops, an error
Loading. Please wait.

Demon Cleaner tab

version 4
version 4

Whole song

Interactive

by Kyuss
16,569 views 42 this week
6 commentsread comments
1 2 3 4 5
x 8
add to favorites
×
Save as Personal and add changes to this tab that will be seen only by you. Learn more ›
×
You can save this tab as Personal to edit and correct it or add notes. All changes will be seen only by you. Learn more »
launch autoscroll
font size
0
reset
how to read this tab
guitar tuner
backing track
0:00
0:00
edit
Autoscroll
slow
fast
+/-
esc
set tempo
stop
-------------------------------------------------------------------------------
                             Demon Cleaner - Kyuss
-------------------------------------------------------------------------------
Tabbed by:Brownbear93
        
Email:mudfly93@yahoo.com

Tuning:low to high: C F Bb Eb G C


[Intro]
                                    
                                                (x3)
C |------------------------------------------------|----------------------------------------------|
G |------------------------------------------------|----------------------------------------------|
D#|------12-10~---12-10-12-/14--h15p14-12~--14-----|----12-10~---12-10-12-/14-15p14--15p14--15p14~|
A#|--------------------------------------------12~-|----------------------------------------------|
F |------------------------------------------------|----------------------------------------------|
C |--10--------------------------------------------|-10-------------------------------------------|


[Verse Riff]

                    (x3)
C |--------------------|--------------------------|
G |--------------------|--------------------------| 
D#|--------------------|--------------------8-----|
A#|--7---5h7-----------|--7---5h7-----5-5h7-------|
F |--5-5----5---5-/8---|--5-5----5----------------|
C |--------------------|--------------------------|


[Chorus 1]

C |----------------------------------------------------------------------------|
G |----------------------------------------------------------------------------|
D#|-----/10-8~-10-8-10~----/10-8~-10-8-10~----7h8p7~--7~---7h8p7~--7~----------|
A#|----------------------------------------------------------------------------|
F |--5-------------------5------------------5------------5---------------------|
C |----------------------------------------------------------------------------|

C |----------------------------------------------------------------------------|
G |----------------------------------------------------------------------------|
D#|-----/10-8~-10-8-10~----/10-8~-10-8-10~----7h8p7~--7~---/8-7-7h8p7h8p7------|
A#|----------------------------------------------------------------------------|
F |--5-------------------5------------------5------------5---------------------|
C |----------------------------------------------------------------------------|


[Verse Riff]


[Chorus 2]

C |-------------------------------------------------|-----------------------------------------------|
G |-------------------------------------------------|-----------------------------------------------|
D#|-------12-10~---12-10-12-/14--h15p14-12~--14-----|-----12-10~---12-10-12-/14-15p14--15p14--15p14~|
A#|---------------------------------------------12~-|-----------------------------------------------|
F |-------------------------------------------------|-----------------------------------------------|
C |--10---------------------------------------------|-10--------------------------------------------|


C |--------------------------------------------------|--------------------------------------------|
G |--------------------------------------------------|---------13--15-15b(gradual)-------------r--|
D#|-------12-10~---12-10-12-/14--h15p14-12~--14------|--12-14-------------------------------------|
A#|---------------------------------------------12~--|--------------------------------------------|
F |--------------------------------------------------|--------------------------------------------|
C |---10---------------------------------------------|--------------------------------------------|


[Verse Riff]


[Chorus 3]

C |--------------------------------------| 
G |--------------------------------------|
D#|----7b--7b--7b--7b--7b--7b--7b-5------|
A#|--------------------------------------|
F |--5---5---5---5---5---5---5----3------|
C |--------------------------------------|(x4)

C |-------------------| 
G |-------------------| 
D#|----7b--7b--7b--7b-|
A#|-------------------|
F |--5---5---5---5----|
C |-------------------|(x9)

C |----------------------------------------------------------------------------|
G |----------------------------------------------------------------------------| 
D#|----7b--7b--7b--7/9\5---5---5---5---5/7\3---3---3---3---5---7b--7b--7b--7b--|
A#|----------------------------------------------------------------------------|
F |--5---5---5---5-------3---3---3---3-------1---1---1---3---5---5---5---5-----|
C |----------------------------------------------------------------------------|(x3)

  "I am the demon cleaner..."                                                                      
C |--------------------------------------------------------------------------------------------------|
G |--------------------------------------------------------------------------------------------------|
D#|-7--7-7--7-7-7-7--7-7-7-7--5--5-5--5-5-5-5--5-5-5-5--3--3-3--3-3-3-3--3-3-3/5-5--7--7-7--7-7-7--7-|
A#|-7--7-7--7-7-7-7--7-7-7-7--5--5-5--5-5-5-5--5-5-5-5--3--3-3--3-3-3-3--3-3-3/5-5--7--7-7--7-7-7--7-|
F |-5--5-5--5-5-5-5--5-5-5-5--3--3-3--3-3-3-3--3-3-3-3--1--1-1--1-1-1-1--1-1-1/3-3--5--5-5--5-5-5--5-|
C |--------------------------------------------------------------------------------------------------|(x3)


[Solo]

  Guitar I:
C |-----------------------------------------------------------------|
G |-----------------------------------------------------------------|
D#|--/14~-1414~-1414~-1414~-1414~-1414~-14-14-14-14-12-12-14~-12-14-|
A#|-----------------------------------------------------------------|
F |-----------------------------------------------------------------|
C |-----------------------------------------------------------------|
                                      
C |----------------------------------------------------|
G |----------13-15-13-15b-15b15b15b15b(151515)r--------|*gradually release with each note
D#|-12-12h14-------------------------------------------|
A#|----------------------------------------------------|
F |----------------------------------------------------|
C |----------------------------------------------------|

C |-------------------------------------------------------------------------------------|
G |-13h15p13----13h15p13----13h15p13----13h15p13----13h15p13----13h15p13----13h15p13----|
D#|----------14----------14----------14----------14----------14----------14----------14-|
A#|-------------------------------------------------------------------------------------|
F |-------------------------------------------------------------------------------------|
C |-------------------------------------------------------------------------------------|

C |----------------------------------------------------------------|
G |-13h15p13----13h15p13----13h15p13----13h15p13----13-15b-15b-15b-|
D#|----------14----------14----------14----------14----------------|
A#|----------------------------------------------------------------|
F |----------------------------------------------------------------|
C |----------------------------------------------------------------|

C |-----------------------------------------------------------------------------------|
G |-13h15p13----13--------------------------------------------------------------------|
D#|----------14---14/12-1010-12b-10-12b-10-12b---12---10h12p10----10-12b-12b-12b--12--|
A#|------------------------------------------------------------12---------------------|
F |-----------------------------------------------------------------------------------|
C |-----------------------------------------------------------------------------------|

C |-----------------------------------------------|
G |-----------------------------------------------|
D#|---10--9--10--9--7--9--7--/9--10--9--10--/12---|
A#|-----------------------------------------------|
F |-----------------------------------------------|
C |-----------------------------------------------|

C |-------------------------------------------------------------------------------------------------|
G |-------------------------------------------------------------------------------------------------|
D#|12b-12-12p10----10-12-10-12-10--12b--r-12p10----10-12-10-12-10--12b-12-12p10----10---------------|
A#|-------------12------------------------------12------------------------------12----12p10-12p10-12|
F |-------------------------------------------------------------------------------------------------|
C |-------------------------------------------------------------------------------------------------|

C |-------------------------------------------------------------------------------------------------|
G |-------------13--------------13--13--13--13--13--13---13---13---13---13---13---13---13-13-13-13--|
D#|-------10h12-12b(12)rp10-----12b-12b-12b-12b-12b---12b--12b--12b--12b--12b--12b--12b12b12b12b12b-|
A#|-10h12-------------------12----------------------------------------------------------------------|
F |-------------------------------------------------------------------------------------------------|
C |-------------------------------------------------------------------------------------------------|

C |-------------------------------------------------------------------------------------|
G |-13-15b-15b-15b-15b---15b--15--13----------------------------------------------------|
D#|-----------------------------------16--16\14--12--12\10--12--10--9--10--9--12--10--9-|
A#|-------------------------------------------------------------------------------------|
F |-------------------------------------------------------------------------------------|
C |-------------------------------------------------------------------------------------|

                    Fade Out
C |------------------------|
G |------------------------|
D#|-7--5----7--5-7----5-7--|
A#|------------------------|
F |------------------------|
C |------------------------|

  Guitar II: 
C |--------------------------------------------------|
G |--------------------------------------------------|
D#|--14--1414--1414-141414br--12--1212--1212-121212br|
A#|--------------------------------------------------|
F |--------------------------------------------------|
C |--------------------------------------------------|

C |-----------------------------------------------------------|
G |----------------------------------------------------15b-15-|
D#|--10--1010-101010/1212-12/14-141414--1414--14141214--------|
A#|-----------------------------------------------------------|
F |-----------------------------------------------------------|
C |-----------------------------------------------------------|

C |--------------------------------------------------|
G |--------------------------------------------------|
D#|--14--1414--1414-141414br--12--1212--1212-121212br|
A#|--------------------------------------------------|
F |--------------------------------------------------|
C |--------------------------------------------------|

C |-----------------------------------------------------------|
G |----------------------------------------------------15b-15-|
D#|--10--1010-101010/1212-12/14-141414--1414--14141214--------|
A#|-----------------------------------------------------------|
F |-----------------------------------------------------------|
C |-----------------------------------------------------------|

C |----------------------------------------------------------------------------------|
G |--15b-15--13h15p13----13-15-13-15-13--15b-15--13h15p13----13-15-13-15-13--15b-15--|
D#|-------------------14----------------------------------14-------------------------|
A#|----------------------------------------------------------------------------------|
F |----------------------------------------------------------------------------------|
C |----------------------------------------------------------------------------------|

C |-------------------------------------------------------------------------------------------|
G |-13h15p13----13h15p13----13h15p13----13h15p13----13h15p13----13h15p13----13h15p13----13tr15|
D#|----------14----------14----------14----------14----------14----------14----------14-------|
A#|-------------------------------------------------------------------------------------------|
F |-------------------------------------------------------------------------------------------|
C |-------------------------------------------------------------------------------------------|

C |--------------------------------------------------------------------------|
G |--15b-15-13h15p13----13---------------------------------------------------|
D#|------------------14----14\12-1010-12b(12)rp10----10------10-12p10----10--|
A#|-----------------------------------------------12------12----------12-----|
F |--------------------------------------------------------------------------|
C |--------------------------------------------------------------------------|

C |----------------------------------------------------------------|
G |--13--13--------------13--13--------------13--13----------------|
D#|--12b----12rp10----10-12b----12rp10----10-12b----12rp10----10~--|
A#|----------------12------------------12------------------12------|
F |----------------------------------------------------------------|
C |----------------------------------------------------------------|

C |--------------------------------------------------------------------------------------|
G |--------------------------------------------------------------------------------------|
D#|-----10-12p10----10-12p10----10-12p10----10-12p10----10-12p10----10-12p10----10-12p10-|
A#|--12----------12----------12----------12----------12----------12----------12----------|
F |--------------------------------------------------------------------------------------|
C |--------------------------------------------------------------------------------------|

C |----------------------------------------------------------------------------|
G |----------------------------------------------------------------------------|
D#|-----10-12p10----10-12p10----10-12p10----10-12p10----10-12p10----10-12p10---|
A#|--12----------12----------12----------12----------12----------12------------|
F |----------------------------------------------------------------------------|
C |----------------------------------------------------------------------------|

C |--------------------------------------|
G |--------------------------------------|
D#|-----10-12p10-12p10-12b(12)rp10-------|
A#|--12----------------------------12----|
F |--------------------------------------|
C |--------------------------------------|                                                     
                                                        Fade out
C |------------------------------------------------------------------|
G |------------------------------------------------------------------|
D#|------------17h19-------17h19-------17h19-------17h19-------17h19-|
A#|------17h19-------17h19-------17h19-------17h19-------17h19-------|
F |------------------------------------------------------------------|
C |------------------------------------------------------------------|

************************************

| /   slide up
| \   slide down
| h   hammer-on
| p   pull-off
| ~   vibrato
| +   harmonic
| x   Mute note
| b   Bend
| pb  Pre-bend
| br  Bend release
| pbr Pre-bend release
| brb Bend release bend
| tr  Trill
| ()  Hit note while bent

************************************
Suggest correction
Creating personal tab
Creating personal tab
You can edit any tab online and save it as your Personal.

You can edit, replace or remove any tab part or add personal notes – all changes will be seen only by you.

Personal tabs can be accessed anytime from any device, even offline.
Learn more »
comments
print report bad tab
6 comments total. Showing first comments.
0 reply
PaulTheCold 10 Mar 06, 2016 11:01 PM, edited on March 7 2016, 08:39 am

I think it should be tuned Bb F Bb Eb G C and the main riff should be (edit: end on 7 rather than 8):

0 reply
PaulTheCold 10 Mar 08, 2016 03:26 AM

Tab disappeared!

Verse Riff:
x3
|--------------------|--------------------------|
|--------------------|--------------------------|
|--------------------|--------------------7-----|
|--7---5h7-----------|--7---5h7-----5-567-------|
|--5-5--------5-/8---|--5-5---------------------|
|---------0----------|---------0----------------|

0 reply
PaulTheCold 10 Aug 16, 2016 04:29 AM, edited at 10:13 am

AFter hearing the master guitar track, I think its..

guest
You may want to rate the tab now too:
select rating
Wanna post a correction for this tab? Suggest correction