Oops, an error
Loading. Please wait.

El Rodeo Bass Tab

version 1
version 1

Whole song

Interactive

4,606 views 3 this week
no commentswrite comment
1 2 3 4 5
1 last vote to show rating
add to favorites
launch autoscroll
font size
0
reset
guitar tuner
Autoscroll
slow
fast
+/-
esc
set tempo
stop
Help us to improve Ultimate-Guitar.com Take our survey!
×
Author
Difficulty
Tuning
novice
C F A# D# G C
Kyuss - El Rodeo
Album : And the circus leaves town...
Bass Player : Scott Reeder
Tab by: Hector Ordas (hordas@ozu.es)

Tune down to C


Intro
         slide up               slide down
|---------------------------------------------|
|--------------------14--12-14\\\\\\\\\\\\\\\\|
|--7-7///////////////-------------------------|
|---------------------------------------------|

Bridge (faster)
|--------------------------|------------------------------------|
|--5-55555-5-7-4-44444-4-4-|------------------------------------|
|--------------------------|5h7-777777777777775h7-77777777777777|
|--------------------------|------------------------------------|

Verse 1
|----------------------------------------------------------------------|
|-5-555555555555574-44444444444444-------------------------------------|
|----------------------------------5h7-777777777777775h7-77777777777777|
|----------------------------------------------------------------------| 

Verse 2
|----------------------------------------------------------------------|
|-5--------------74----------------------------------------------------|
|----------------------------------5h7-777777777777775h7-77777777777777|
|----------------------------------------------------------------------| 

Listen to the song, it's easy to place each part

Transcribed by Hector Ordas (hordas@ozu.es) 

Suggest correction
Give kudos to tab author, rate the tab!
1 2 3 4 5
comments
print report bad tab
guest
You may want to rate the tab now too:
select rating
Wanna post a correction for this tab? Suggest correction