Oops, an error
Loading. Please wait.

El Rodeo Tab

version 1
version 1

Whole song

Interactive

by Kyuss
17,511 views 54 this week
2 commentsread comments
1 2 3 4 5
x 9
add to favorites
launch autoscroll
font size
0
reset
how to read this tab
guitar tuner
Autoscroll
slow
fast
+/-
esc
set tempo
stop
[Intro]
e|----------------------------------------------------------|
B|----------------------------------------------------------|
G|-12~~~12h13h15p13-12h13p12~~--12/11-------------8---------|(x3)
D|-------------------------------------8--8-8-8-8----10-----|
A|----------------------------------------------------------|
E|----------------------------------------------------------|

e|-------------------------------------------------------------|
B|------------------------------------13-----------------------|
G|-12~~~12h13h15p13-12h13p12~~--12/11---------------8----------|
D|---------------------------------------8--8-8-8-8---10-------|
A|-------------------------------------------------------------|
E|-------------------------------------------------------------|

e|----------------------------------------------------------|
B|----------------------------------------------------------|
G|-12~~~12h13h15p13-12h13p12~~--12/11-------------8---------|(x2)
D|-------------------------------------8--8-8-8-8----10-----|
A|----------------------------------------------------------|
E|----------------------------------------------------------|

e|----------------------------------------------------------|
B|--------------------------------------13—-13~~~-----------|
G|-12~~~12h13h15p13-12h13p12~~--12/11-11--11-------------8--|
D|--------------------------------------------8--8-8-8-8--10|
A|----------------------------------------------------------|
E|----------------------------------------------------------|

e|----------------------------------------------------------|
B|----------------------------------------------------------|
G|-12~~~12h13h15p13-12h13p12~~--12/11-------------8---------|
D|-------------------------------------8--8-8-8-8----10-----|
A|----------------------------------------------------------|
E|----------------------------------------------------------|

e|-------------------|---------------------------------------|
B|-------------------|---------------------------------------|
G|-5-5-5-5-5-5-5-5-5-|-8--8--8--8-8/9\-7--7--7--7------------|
D|-5-5-5-5-5-5-5-5-5-|-8--8--8--8-8/9\-7--7--7--7------------|
A|-3-3-3-3-3-3-3-3-3-|-6--6--6--6—6/7\-5--5--5--5------------|
E|----------------------------------------------------------|

[Verse]
            (x1)                             (x2)
e|-------------------------------------|-------------------|
B|-------------------------------------|-------------------|
G|-8-8-8-8-8-8-8-8---7-7-7-7-7-7-7-7---|-3/5-5-5-5-5-5-5-5-|
D|-8-8-8-8-8-8-8-8---7-7-7-7-7-7-7-7---|-3/5-5-5-5-5-5-5-5-|
A|-6-6-6-6-6-6-6-6h7-5-5-5-5-5-5-5-5---|-1/3-3-3-3-3-3-3-3-|
E|-------------------------------------|-------------------|
   Johnny            Johnny               

[Chorus]
e|-------------------------------------------------------------|
B|-------------------------------------------------------------|
G|------------------------------3/5-5-5-5-5-5-5-3/5-5-5-5-5-5-5|
D|------------------------------3/5-5-5-5-5-5-5-3/5-5-5-5-5-5-5|
A|-6~~~~~~~~~~7-5~~~~~~~~~~~~~~-1/3-3-3-3-3-3-3-1/3-3-3-3-3-3-3|
E|-------------------------------------------------------------|



************************************

| h  Hammer-on
| p  Pull-off
| /  Slide up
| ~  Vibrato
| \  Slide down
| — 

************************************
Suggest correction
comments
print report bad tab
2 comments total.
0 reply
King Baby Duck 20 Feb 20, 2008 11:45 AM

Great tab, fantastic to be finally play a kyuss song perfectly without having to faff around with the tuning.

+1 reply
matias.togni 10 Jul 11, 2014 04:39 PM

8/10\-7
8/10\-7
6/ 8\-5

just this man

guest
You may want to rate the tab now too:
select rating
Wanna post a correction for this tab? Suggest correction