Oops, an error
Loading. Please wait.

El Rodeo tab

version 2
version 2

Whole song

Interactive

by Kyuss
13,952 views 18 this week
1 commentread comment
1 2 3 4 5
x 8
add to favorites
×
Save as Personal and add changes to this tab that will be seen only by you. Learn more ›
×
You can save this tab as Personal to edit and correct it or add notes. All changes will be seen only by you. Learn more »
launch autoscroll
font size
0
reset
how to read this tab
guitar tuner
edit
Autoscroll
slow
fast
+/-
esc
set tempo
stop
********************
* KYUSS - EL RODEO *
********************

Album: "...and the circus leaves town"
Tuning: (C-F-Bb-Eb-G-c)

Transcribed by: Juan De Camillis

Great song, the best of Kyuss in my opinion. The Song is not in order, there are all riffs
played in the song. So Listen to the song and get the right order and timming.

INTRO Gtr 1
 c|--------------------------------------------------------|
 G|-----12------12-13-15-12--12-11------3---3-3-3-3-8-5----|
Eb|--------------------------------------------------------|
Bb|--------------------------------------------------------|
 F|--------------------------------------------------------|
 C|--------------------------------------------------------|

 c|--------------------------------12----------------------|
 G|-----12------12-13-15-12--12-11------3---3-3-3-3-8-5----|
Eb|--------------------------------------------------------|
Bb|--------------------------------------------------------|
 F|--------------------------------------------------------|
 C|--------------------------------------------------------|

 c|---------------------------------12------12-------------------|
 G|-----12------12-13-15-12--12-11------11------3-3--3--3-8-5----|
Eb|--------------------------------------------------------------|
Bb|--------------------------------------------------------------|
 F|--------------------------------------------------------------|
 C|--------------------------------------------------------------|


NTRO Gtr 2
        C5          C5(b5)    G#5    C5  C#5 B5    G#5/B       C5
 c|------------------------------------------------------------------|
 G|------------------------------------------------------------------|
Eb|-----9-9/---9-9---9-9-9-9--5-5----------9-8-8-8-8-8-5-5-5---------|
Bb|-----9-9/---9-9---8-8-8-8--5-5-----2----9-8-8-8-5-5-5-5-5----2----|
 F|-----7-7/---7-7---7-7-7-7--3-3-----2----7-6-6-6-3-3-3-3-3----2----|
 C|-----------------------------------0-------------------------0----|


INTRO END:
    C5
 c|-------------------------|
 G|-------------------------|
Eb|-9-9-9-9-9-9-9-9-9-9-9-9-|
Bb|-9-9-9-9-9-9-9-9-9-9-9-9-|
 F|-7-7-7-7-7-7-7-7-7-7-7-7-|
 C|-------------------------|


MAIN RIFF 1:
    Eb5                      F5                   G#5 C5
 c|------------------------------------------------------------------------------------------------|
 G|------------------------------------------------------------------------------------------------|
Eb|-12-12-12-12-12-12-12-14--11-11-11-11-11-11-11--------------------------------------------------|
Bb|-12-12-12-12-12-12-12-14--11-11-11-11-11-11-11--10-14-14-14-14-14-14-14-14-14-14-14-14-14-14-14-|
 F|-10-10-10-10-10-10-10-12---9--9--9--9--9--9--9--10-14-14-14-14-14-14-14-14-14-14-14-14-14-14-14-|
 C|-------------------------------------------------8-12-12-12-12-12-12-12-12-12-12-12-12-12-12-12-|



MAIN RIFF 2:
    Eb5                      F5                   G#5 C5
 c|------------------------------------------------------------------------------------------------|
 G|------------------------------------------------------------------------------------------------|
Eb|-12-------------------14--11--------------------------------------------------------------------|
Bb|-12-------------------14--11--------------------10-14-14-14-14-14-14-14-14-14-14-14-14-14-14-14-|
 F|-10-------------------12---9--------------------10-14-14-14-14-14-14-14-14-14-14-14-14-14-14-14-|
 C|-------------------------------------------------8-12-12-12-12-12-12-12-12-12-12-12-12-12-12-12-|



OUTRO
    C5                             C5
 c|-------------------------------|---|
 G|-------------------------------|---|
Eb|-------------------------------|---|
Bb|-14-14-14-14-14-14-14-14-14-14-|-2-|
 F|-14-14-14-14-14-14-14-14-14-14-|-2-|
 C|-12-12-12-12-12-12-12-12-12-12-|-0-|

            
            
Suggest correction
Creating personal tab
Creating personal tab
You can edit any tab online and save it as your Personal.

You can edit, replace or remove any tab part or add personal notes – all changes will be seen only by you.

Personal tabs can be accessed anytime from any device, even offline.
Learn more »
comments
print report bad tab
1 comment total.
0 reply
Simon4360 10 Jan 24, 2011 06:53 AM

think the intro is slightly wrong. I think it sounds more like:

c|--------------------------------------------------------|
G|-12----12-13-15-12--12-13-12---12-11----3---3-3-3-3-8-5-|
Eb|--------------------------------------------------------|
Bb|--------------------------------------------------------|
F|--------------------------------------------------------|
C|--------------------------------------------------------|

guest
You may want to rate the tab now too:
select rating
Wanna post a correction for this tab? Suggest correction