Oops, an error
Loading. Please wait.

Fatso Forgotso Bass Tab

version 3
version 3

Whole song

Interactive

772 views 3 this week
1 commentread comment
1 2 3 4 5
please rate
add to favorites
launch autoscroll
font size
0
reset
guitar tuner
Autoscroll
slow
fast
+/-
esc
set tempo
stop
Help us to improve Ultimate-Guitar.com Take our survey!
×
Contributor
Difficulty
novice
Artist: Kyuss
Song: Fatso Forgetso Phase II
Album: Kyuss/Queens of the Stone Age (Split EP w/ Queens Of The Stone Age, released 1997)
Tuning: G-D-A-E (Normal)
Notes:
\ - Slide Down
/ - Slide Up


     Intro

G |-------------------------------------------------------|
D |-------------------------------------------------------|
A |-------------------------------------------------------|
E |-44444444-44444444-44444444-44444444-44444444-44444444-|


    Main Riff

"You lay it down and let it give you a lesson"

G |-------------------------------------|
D |-------------------------------------|
A |-------------------3-------2---------|    [x4]
E |-4-444444-44444444--333333--22222----|


     Chorus

"Well it ain't fair..."

G |-------------------------------------|
D |-------------------------------------|
A |----------3-333333-------------------|
E |-4-444444----------3-33333333333333--|

G |-----------------------------------------------------------------|
D |-----------------------------------------------------------------|
A |----------3-333333-----------------------------------------------|
E |-4-444444----------10-10 10 10 10 10 10 10 10 10 10 10 10 10 10--|

G |-------------------------------------|
D |-------------------------------------|
A |----------3-333333-------------------|
E |-4-444444----------3-33333333333333--|

G |-----------------------------------------------------------------|
D |-----------------------------------------------------------------|
A |----------3-333333-----------------------------------------------|
E |-4-444444----------10-10 10 10 10 10 10 10 10 10 10 10 10 10 10--|


     Main Riff

G |-------------------------------------|
D |-------------------------------------|
A |-------------------3-------2---------|    x4
E |-4-444444-44444444--333333--22222----|


     Bridge

G |-------------------------------------|
D |-------------------------------------|
A |-------------------3-------2---------|
E |-4-444444-44444444--333333--22222----|

G |---------------------------------|
D |---------------------------------|
A |----5//11 11 11\\5-333333--------|
E |-4-4----------------------22222--|

* 5//11 meaning hit the 5th fret, and then hit the string 2 times while sliding up to 
11th fret, and
  11\\5 meaning hit the 11th fret, and then hit the string 2 times while sliding down to 
5th fret


     Chorus

"Well it ain't fair..."

G |-------------------------------------|
D |-------------------------------------|
A |----------3-333333-------------------|
E |-4-444444----------3-33333333333333--|

G |-----------------------------------------------------------------|
D |-----------------------------------------------------------------|
A |----------3-333333-----------------------------------------------|
E |-4-444444----------10-10 10 10 10 10 10 10 10 10 10 10 10 10 10--|

G |-------------------------------------|
D |-------------------------------------|
A |----------3-333333-------------------|
E |-4-444444----------3-33333333333333--|

G |-----------------------------------------------------------------|
D |-----------------------------------------------------------------|
A |----------3-333333-----------------------------------------------|
E |-4-444444----------10-10 10 10 10 10 10 10 10 10 10 10 10 10 10--|


    Ending

G |--------------------------------------------------------------------|
D |--------------------------------------------------------------------|
A |--------------------------------------------------------------------|
E |-44444444-44444444-44444444-44444444-44444444-44444444-444444444444-|


Hope thats good, it is my very first tab and it sounds about right.
comments
We did not receive enough feedback on this tab! Please rate:
print report bad tab
1 2 3 4 5
1 comment total.
+1 reply
Saf1 386 wrote on February 22 2009, 01:05 pm

(Flip The Phase)

I want to post or [tab]
guest
You may want to rate the tab now too:
select rating
Please do not post tabs as comments. Select "correction" instead!