Oops, an error
Loading. Please wait.

Gardenia tab

version 2
version 2

Whole song

Interactive

by Kyuss
22,765 views 72 this week
3 commentsread comments
1 2 3 4 5
x 8
add to favorites
×
Save as Personal and add changes to this tab that will be seen only by you. Learn more ›
×
You can save this tab as Personal to edit and correct it or add notes. All changes will be seen only by you. Learn more »
launch autoscroll
font size
0
reset
how to read this tab
guitar tuner
backing track
0:00
0:00
edit
Autoscroll
slow
fast
+/-
esc
set tempo
stop
Gardenia - Kyuss
Tabbed by:Brownbear93
Tuning:C F Bb Eb G C
Opening tune off of the great Sky Valley
Please rate or comment with improvements/feedback

[Intro]
C |-----------------------------------------------------|
G |-----------------------------------------------------|
Eb|-----------------------------------------------------|
Bb|-----------------------------------------------------|
F |-17-17-17-17h19-19-19-19b-19-19b-19-19b-19-17-17-17--|
C |--0--0--0--0-----0--0--0---0--0---0--0---0--0--0--0--|

C |---------------------------------------------|
G |---------------------------------------------|
Eb|---------------------------------------------|x6
Bb|---------------------------------------------|
F |--17h19-19-19-19b-19-19b-19-19b-19-17-17-17--|
C |---0-----0--0--0---0--0---0--0---0--0--0--0--|

C |----------------------------------------|
G |----------------------------------------|
Eb|----------------------------------------|
Bb|----------------------------------------|
F |--17h19-19-19-19b-19-19b-19-19b-19-19/--|
C |---0-----0--0--0---0--0---0--0---0--0---|

C |--------------------------------------------------------------------|
G |--------------------------------------------------------------------|
Eb|--------------------------------------------------------------------|
Bb|-9/10101010--1010--1010--10101010--9/10101010-101010/12121212121212-|
F |-9/10101010--1010--1010--10101010--9/10101010-101010/12121212121212-|
C |-7/-8-8-8-8---8-8---8-8---8-8-8-8--7/-8-8-8-8--8-8-8/10101010101010-|

C |---------------------------------------------------------------------------------|
G |---------------------------------------------------------------------------------|
Eb|---------------------------------------------------------------------------------|
Bb|---------------------------------------------------------------------------------|
F |--17h19-19-19-19b-19-19b-19-19b-19-17-17-17-17h19-19-19-19b-19-19b-19-19b-19-19/-|
C |---0-----0--0--0---0--0---0--0---0--0--0--0--0-----0--0--0---0--0---0--0---0--0--|

C |--------------------------------------------------------------------|
G |--------------------------------------------------------------------|
Eb|--------------------------------------------------------------------|
Bb|-9/10101010--1010--1010--10101010--9/10101010-101010/12121212121212-|
F |-9/10101010--1010--1010--10101010--9/10101010-101010/12121212121212-|
C |-7/-8-8-8-8---8-8---8-8---8-8-8-8--7/-8-8-8-8--8-8-8/10101010101010-|

C |-------------------------------------|
G |-------------------------------------|
Eb|-------------------------------------|
Bb|-12/14141414-\9---121212/14141414-\9-|
F |-10/12121212-\7---101010/12121212-\7-|
C |-------------------------------------|

C |--------------------------------------------------------------------------------------|
G |--------------------------------------------------------------------------------------|
Eb|--------------------------------------------------------------------------------------|
Bb|--------------------------------------------------------------------------------------|
F |-/17h19-19-19-19b-19-19b-19-19b-19-17-17-17-17h19-19-19-19b-19-19b-19-19b-19-17-17-17-|
C |---0-----0--0--0---0--0---0--0---0--0--0--0--0-----0--0--0---0--0---0--0---0--0--0--0-|

C |---------------------------------------------|
G |---------------------------------------------|
Eb|---------------------------------------------|
Bb|---------------------------------------------|
F |--17h19-19-19-19b-19-19b-19-19b-19-17-17-17--|
C |---0-----0--0--0---0--0---0--0---0--0--0--0--|

C |---------------------------------|
G |---------------------------------|
Eb|------------------------------12~|
Bb|------------------------12h14----|
F |-17h19-19-19-19b-19-19-----------|
C |--0-----0--0--0---0--0-----------|

[Verse]
C |---------------------------------------------|
G |---------------------------------------------|
Eb|---------------------------------------------|x3
Bb|---------------------------------------------|
F |--17h19-19-19-19b-19-19b-19-19b-19-17-17-17--|
C |---0-----0--0--0---0--0---0--0---0--0--0--0--|

C |------------------------------------|
G |------------------------------------|
Eb|------------------------------------|
Bb|-------------------------12-14--14b-|
F |--17h19-19-19-19b-19-19-------------|
C |---0-----0--0--0---0--0-------------|

C |---------------------------------------------|
G |---------------------------------------------|
Eb|---------------------------------------------|x3
Bb|---------------------------------------------|
F |--17h19-19-19-19b-19-19b-19-19b-19-17-17-17--|
C |---0-----0--0--0---0--0---0--0---0--0--0--0--|

C |----------------------------------------|
G |----------------------------------------|
Eb|----------------------------------------|
Bb|----------------------------------------|
F |--17h19-19-19-19b-19-19b-19-19b-19-19/--|
C |---0-----0--0--0---0--0---0--0---0--0---|

[Chorus]
C |--------------------------------------------------------------------|
G |--------------------------------------------------------------------|
Eb|--------------------------------------------------------------------|
Bb|-9/10101010--1010--1010--10101010--9/10101010-101010/12121212121212-|
F |-9/10101010--1010--1010--10101010--9/10101010-101010/12121212121212-|
C |-7/-8-8-8-8---8-8---8-8---8-8-8-8--7/-8-8-8-8--8-8-8/10101010101010-|

C |-------------------------------------------------------|
G |-------------------------------------------------------|
Eb|--14--12----14-12--14-12--14-12-14-12--14b--12--14-14b-|
Bb|--14--12----14-12--14-12--14-12-14-12--14b--12--14-14b-|
F |-------------------------------------------------------|
C |-------------------------------------------------------|

C |--------------------------------------------------------------------|
G |--------------------------------------------------------------------|
Eb|--------------------------------------------------------------------|
Bb|-9/10101010--1010--1010--10101010--9/10101010-101010/12121212121212-|
F |-9/10101010--1010--1010--10101010--9/10101010-101010/12121212121212-|
C |-7/-8-8-8-8---8-8---8-8---8-8-8-8--7/-8-8-8-8--8-8-8/10101010101010-|

C |------------------------------------------|
G |------------------------------------------|
Eb|------------------------------------------|
Bb|-12/14141414-\9---121212/141414141414-14b-|
F |-10/12121212-\7---101010/121212121212-12b-|
C |------------------------------------------|

C |---------------------------------------------|
G |---------------------------------------------|
Eb|---------------------------------------------|
Bb|---------------------------------------------|
F |--17h19-19-19-19b-19-19b-19-19b-19-17-17-17--|
C |---0-----0--0--0---0--0---0--0---0--0--0--0--|

C |------------------------------------|
G |------------------------------------|
Eb|------------------------------------|
Bb|-------------------------12-14--14~-|
F |--17h19-19-19-19b-19-19-------------|
C |---0-----0--0--0---0--0-------------|

[2nd Verse]
C |---------------------------------------------|
G |---------------------------------------------|
Eb|---------------------------------------------|
Bb|---------------------------------------------|
F |--17h19-19-19-19b-19-19b-19-19b-19-17-17-17--|
C |---0-----0--0--0---0--0---0--0---0--0--0--0--|

C |------------------------------------|
G |------------------------------------|
Eb|------------------------------------|
Bb|-------------------------12-14--14~-|
F |--17h19-19-19-19b-19-19-------------|
C |---0-----0--0--0---0--0-------------|

C |---------------------------------------------|
G |---------------------------------------------|
Eb|---------------------------------------------|
Bb|---------------------------------------------|
F |--17h19-19-19-19b-19-19b-19-19b-19-17-17-17--|
C |---0-----0--0--0---0--0---0--0---0--0--0--0--|

C |------------------------------------------------------------------------------|
G |------------------------------------------------------------------------------|
Eb|-------------------------12h14-14b--12----------------------------------------|
Bb|---------------------------------------14~------------------------------------|
F |--17h19-19-19-19b-19-19----------------------19-19b-19-19b-19-19b-19-17-17-17-|
C |---0-----0--0--0---0--0-----------------------0--0---0--0---0--0---0--0--0--0-|

C |---------------------------------------------|
G |---------------------------------------------|x2
Eb|---------------------------------------------|
Bb|---------------------------------------------|
F |--17h19-19-19-19b-19-19b-19-19b-19-17-17-17--|
C |---0-----0--0--0---0--0---0--0---0--0--0--0--|

C |------------------------------------------------|
G |------------------------------------------------|
Eb|------------------------------------------------|
Bb|------------------------------------------------|
F |--17h19-19-17-19-19-17-19-19-17-19-17-19-17-19/-|
C |---0-----0--0--0--0--0--0--0--0--0--0--0--0--0--|

[2nd Chorus]
C |--------------------------------------------------------------------|
G |--------------------------------------------------------------------|
Eb|--------------------------------------------------------------------|
Bb|-9/10101010--1010--1010--10101010--9/10101010-101010/12121212121212-|
F |-9/10101010--1010--1010--10101010--9/10101010-101010/12121212121212-|
C |-7/-8-8-8-8---8-8---8-8---8-8-8-8--7/-8-8-8-8--8-8-8/10101010101010-|

C |-------------------------------------------------------|
G |-------------------------------------------------------|
Eb|--14--12---14-12--14-12--14-12-14---14b--12--14-14b----|
Bb|--14--12---14-12--14-12--14-12-14---14b--12--14-14b----|
F |-------------------------------------------------------|
C |-------------------------------------------------------|

C |--------------------------------------------------------------------|
G |--------------------------------------------------------------------|
Eb|--------------------------------------------------------------------|
Bb|-9/10101010--1010--1010--10101010--9/10101010-101010/12121212121212-|
F |-9/10101010--1010--1010--10101010--9/10101010-101010/12121212121212-|
C |-7/-8-8-8-8---8-8---8-8---8-8-8-8--7/-8-8-8-8--8-8-8/10101010101010-|

  w/wah
C |--------------------------------------------------------------------|
G |-------------/19~---------------/20~------------/21~----------------|
Eb|--------------------------------------------------------------------|
Bb|--14p12--14---------14p12--14---------14p12-14----------14-12~---9--|
F |-----------------------------------------------------------------7--|
C |-----------------------------------------------------------------0--|

C |----------------------------------------------|
G |----------------------------------------------|
Eb|----------------------------------------------|
Bb|--12-12-12--9-----12-12-12--9-----12-12-12--9-|
F |--10-10-10--7-----10-10-10--7-----10-10-10--7-|
C |------------0---------------0---------------0-|


  [Solo] w/ wah and delay
C |---------------------------------------------------------------------|
G |-----------------------------------------------<12>--------15--------|
Eb|-----------------------------------------------<12>--------14b-----r-|
Bb|-----------------------------------------------<12>------------------|
F |--15h17~--17~---17~---17~-----17~----17~--17~------------------------|
C |---------------------------------------------------------------------|

C |--------------------------------15b--------------------------------------------|
G |-----------------------14---12-------------------------------------------------|
Eb|-------------------12--14------------------------------------------------------|
Bb|-14--------12---14-----14----------------14~------14/Eb--Eb/12/13/14/--\-------|
F |-------------------------------------------------------------------------------|
C |-------------------------------------------------------------------------------|

C |-xxx--x--x--xx--xxxxxx--x-x-x--xx--xxxxxx--x--x-x-xx--xxxxxxx-xxx-x-xxxx-xxxx-x-xxx|
G |-xxx--x--x--xx--xxxxxx--x-x-x--xx--xxxxxx--x--x-x-xx--xxxxxxx-xxx-x-xxxx-xxxx-x-xxx|
Eb|-xxx--x--x--xx--xxxxxx--x-x-x--xx--xxxxxx--x--x-x-xx--xxxxxxx-xxx-x-xxxx-xxxx-x-xxx|
Bb|-xxx--x--x--xx--xxxxxx--x-x-x--xx--xxxxxx--x--x-x-xx--xxxxxxx-xxx-x-xxxx-xxxx-x-xxx|
F |-----------------------------------------------------------------------------------|
C |-----------------------------------------------------------------------------------|

C |----------<12>-----<12>------------------------------------------|
G |---<12>-------<12>----------------<7>-----<7>-----------<7>------|
Eb|---<12>------------------------<7>----<7>------------<7>---------|
Bb|-----------------------------------------------------------------|
F |-----------------------------------------------------------------|
C |-----------------------------------------------------------------|

C |--------------------<12>-----------<12>----------------------|
G |--<12>-<12>----<12>------------<12>---------------<7>---<7>--|
Eb|--<12>-----<12>--------------------------------<7>----<7>----|
Bb|-------------------------------------------------------------|
F |-------------------------------------------------------------|
C |-------------------------------------------------------------|

C |-xxx--x--x--xx--xxxxxx--x-x-x--xx--xxxxxx--xxx-x--x--xx--xxxxxxx-x-xxxxx-x-xxxxx-----|
G |-xxx--x--x--xx--xxxxxx--x-x-x--xx--xxxxxx--xxx-x--x--xx--xxxxxxx-x-xxxxx-x-xxxxx-----|
Eb|-xxx--x--x--xx--xxxxxx--x-x-x--xx--xxxxxx--xxx-x--x--xx--xxxxxxx-x-xxxxx-x-xxxxx-----|
Bb|-xxx--x--x--xx--xxxxxx--x-x-x--xx--xxxxxx--xxx-x--x--xx--xxxxxxx-x-xxxxx-x-xxxxx---9-|
F |-----------------------------------------------------------------------------------7-|
C |-----------------------------------------------------------------------------------0-|

C |-------------------------------------------|
G |-------------------------------------------|
Eb|-------------------------------------------|x3
Bb|-------------------------------------------|
F |-------------------------------------------|
C |-10-12-12-12-12-12-12-12-12-12-12-12-12-12-|
  PM.........................................

C |----------------------------------------------------------------------------------------|
G |----------------------------------------------------------------------------------------|
Eb|----------------------------------------------------------------------------------------|x4
Bb|----------------------------------------------------------------------------------------|
F |----------------------10--------------------------------------------------------------10|
C |-10-12-12-12-12-12-12-10-12-12-12-12-12-12-10h12-12-12-12-12-12-12--10-12-10-12-10-12---|
  PM.....................   ............................................................

[Fills]
C |------------------------------------------------------------------|
G |------------------------------------------------------------------|
Eb|------------------------------------------------------------------|
Bb|----12-14--x-14~--------------------------------------------------|
F |------------------------------------10----------------------------|
C |------------------------------10h12----10h12-10h12-10h12-12-------|

C |-------------------------------------------------------------------------------------------|
G |-------------------------------------------------------------------------------------------|
Eb|-------------------------------------------------------------------------------------------|
Bb|-------------------------------------------------------------9-9-9-9-9-9-9-9-9-9-9-9-9-9-9-|
F |----------------------10-------------------------------------7-7-7-7-7-7-7-7-7-7-7-7-7-7-7-|
C |-10-12-12-12-12-12-12-10-12-12-12-12-12-12-12-12-12-12-12-12-0-0-0-0-0-0-0-0-0-0-0-0-0-0-0-|
  PM.....................   ...................................

[3rd Chorus]
C |--------------------------------------------------------------------|
G |--------------------------------------------------------------------|
Eb|--------------------------------------------------------------------|
Bb|-9/10101010--1010--1010--10101010--9/10101010-101010/12121212121212-|
F |-9/10101010--1010--1010--10101010--9/10101010-101010/12121212121212-|
C |-7/-8-8-8-8---8-8---8-8---8-8-8-8--7/-8-8-8-8--8-8-8/10101010101010-|


C |----------------------------------------|
G |--------14b--14b-12--14b-12---14-12-14b-|
Eb|--12h14-14b--14b-12--14b-12---14-12-14b-|
Bb|--12h14-14b--14b-12--14b-12---14-12-14b-|
F |----------------------------------------|
C |----------------------------------------|

C |--------------------------------------------------------------------|
G |--------------------------------------------------------------------|
Eb|--------------------------------------------------------------------|
Bb|-9/10101010--1010--1010--10101010--9/10101010-101010/12121212121212-|
F |-9/10101010--1010--1010--10101010--9/10101010-101010/12121212121212-|
C |-7/-8-8-8-8---8-8---8-8---8-8-8-8--7/-8-8-8-8--8-8-8/10101010101010-|

  w/wah
C |-----------------------------------------------------------------|
G |-------------/19~---------------/20~------------/21~-------------|
Eb|-----------------------------------------------------------------|
Bb|--14p12--14---------14p12--14---------14p12-14----------14-12~---|
F |-----------------------------------------------------------------|
C |-----------------------------------------------------------------|

[Outro]
                                 x4                                  x4
C |---------------------------------|---------------------------------|
G |---------------------------------|---------------------------------|
Eb|---------------------------------|---------------------------------|
Bb|-----12---9----12---9----12---12-|-----12---9----12---9----12---9--|
F |-----10---7----10---7----10---10-|-----10---7----10---7----10---7--|
C |--00----0---00----0---00----0----|--00----0---00----0---00----0----|
  PM...    .   ..    .   ..    .       ..    .   ..    .   ..    .

                               x4                                  x4
C |---------------------------------|---------------------------------|
G |---------------------------------|---------------------------------|
Eb|---------------------------------|---------------------------------|
Bb|-----12---9----12---9----12---12-|-----12---9----12---9----12---9--|
F |-----10---7----10---7----10---10-|-----10---7----10---7----10---7--|
C |--00----0---00----0---00----0----|--00----0---00----0---00----0----|
  PM...    .   ..    .   ..    .       ..    .   ..    .   ..    .

                             x4                                   Repeat until fade out
C |------------------------------|----------------------------------------|
G |------------------------------|----------------------------------------|
Eb|------------------------------|----------------------------------------|
Bb|-------9-----9-9------9-----9-|----9----9-9----9----9-9----9----9-9----|
F |-------7-----7-7------7-----7-|----7----7-7----7----7-7----7----7-7----|
C |-00000---000-----0000---000---|-00---00-----00---00-----00---00-----00-|
  PM.....   ...     ....   ...     ..   ..     ..   ..     ..   ..     ..



************************************

| b   Bend
| h   Hammer-on
| /   Slide up
| \   Slide down
| ~   Vibrato
| p   Pull-off
| r   Release
| x   Dead note
| PM  Palm mute

************************************
Suggest correction
Creating personal tab
Creating personal tab
You can edit any tab online and save it as your Personal.

You can edit, replace or remove any tab part or add personal notes – all changes will be seen only by you.

Personal tabs can be accessed anytime from any device, even offline.
Learn more »
comments
print report bad tab
3 comments total.
0 reply
Antpetitt 166 Aug 25, 2012 11:03 AM

Great! This one is perfect. Best tab i've seen so far for this one.

+2 reply
pm.vincent 10 May 28, 2013 08:38 PM

Steeevoo666, man, you comment on nearly ever Kyuss tab with the same incorrect opinion. C standard is two full steps, or 4 semi tones below E standard. SO, D to C# to C to Bb. four semi tones equals two whole steps. Keep up with your music theory study.

guest
You may want to rate the tab now too:
select rating
Wanna post a correction for this tab? Suggest correction