Oops, an error
Loading. Please wait.

Green Machine Tab

version 1
version 1

Whole song

Interactive

25,393 views 6 this week
no commentswrite comment
1 2 3 4 5
1 last vote to show rating
add to favorites
launch autoscroll
font size
0
reset
how to read this tab
guitar tuner
×
Best way to learn
"Green Machine"
Autoscroll
slow
fast
+/-
esc
set tempo
stop
Tuning
E A D G B E
Kyuss – Green Machine


main riff
C |----------------------------------------------------------------------------|
G |----------------------------------------------------------------------------|
Eb|----------------------------------------------------------------------------|
Bb|-----9-----9-----9-----9-----15-14-----9-----9-----9-----9------------------|
F |-7-7-7-7-7-7-7-7-7-7-7-7-7-7-13-12-7-7-7-7-7-7-7-7-7-7-7-7-7-7--/x----------|
C |----------------------------------------------------------------/x----------|

        
main riff during chorus
C |----------------------------------------------------------------------------|
G |----------------------------------------------------------------------------|
Eb|----------------------------------------------------------------------------|
Bb|-----9-----9-----9-----9-----15-14-----9-----9-----9-----9-----12-11--------|
F |-7-7-7-7-7-7-7-7-7-7-7-7-7-7-13-12-7-7-7-7-7-7-7-7-7-7-7-7-7-7-10--9--------|
C |----------------------------------------------------------------------------|

chorus
C |----------------------------------------------------------------------------|
G |----------------------------------------------------------------------------|
Eb|----------------------------------------------------------------------------|
Bb|------------------------------------------7-7-7--7-12-11--------------------|
F |-7--7--7-7-7-7--7-7--7-7-7-10-1010-101010-5-5-5--5-10--9--------------------|
C |-0--0--0-0-0-0--0-0--0-0-0--8--8-8--8-8-8-----------------------------------|


Key

/x is a slide up the neck
Suggest correction
Give kudos to tab author, rate the tab!
1 2 3 4 5
comments
print report bad tab
guest
You may want to rate the tab now too:
select rating
Wanna post a correction for this tab? Suggest correction