Oops, an error
Loading. Please wait.
We have an official Green Machine tab made by UG professional guitarists. Check out the tab »
×
by Kyuss
35,288 views 99 this week
6 commentsread comments
1 2 3 4 5
x 16
add to favorites
×
Save as Personal and add changes to this tab that will be seen only by you. Learn more ›
×
You can save this tab as Personal to edit and correct it or add notes. All changes will be seen only by you. Learn more »
launch autoscroll
font size
0
reset
how to read this tab
guitar tuner
edit
Autoscroll
slow
fast
+/-
esc
set tempo
stop
Author
Song: Green Machine
Artist: Kyuss
Album: Blues for the Red Sun
Year: 1992
Tuning: C, F, Bb, Eb, G, C
Guitarist: Josh Homme


[Intro/Main Riff]

   PM__  PM__  PM__  PM__  PM__    PM__  PM__  PM__  PM__  PM__
C |----------------------------------------------------------------|
G |----------------------------------------------------------------|
Eb|-----9-----9-----9-----9-----14b-----9-----9-----9-----9--------| x10
Bb|-----9-----9-----9-----9-----14b-----9-----9-----9-----9--------|
F |-----7-----7-----7-----7-------------7-----7-----7-----7--------|
C |-0-0---0-0---0-0---0-0---0-0-----0-0---0-0---0-0---0-0---0-0--/-|


[Chorus]

C |-------------------------------------------------------------|
G |-------------------------------------------------------------|
Eb|----------------------------5-5-5--5-5-5--7-7-7--12-12-12-12-| x4
Bb|-2--2-2-2-2--2--2-2--2-2-2--x-x-x--x-x-x--x-x-x---x--x--x--x-|
F |-2--2-2-2-2--2--2-2--2-2-2--3-3-3--3-3-3--5-5-5--10-10-10-10-|
C |-0--0-0-0-0--0--0-0--0-0-0-----------------------------------|


[Main Riff]

   PM__  PM__  PM__  PM__  PM__    PM__  PM__  PM__  PM__  PM__
C |----------------------------------------------------------------|
G |----------------------------------------------------------------|
Eb|-----9-----9-----9-----9-----14b-----9-----9-----9-----9--------| x6
Bb|-----9-----9-----9-----9-----14b-----9-----9-----9-----9--------|
F |-----7-----7-----7-----7-------------7-----7-----7-----7--------|
C |-0-0---0-0---0-0---0-0---0-0-----0-0---0-0---0-0---0-0---0-0--/-|


[Chorus]

C |-------------------------------------------------------------|
G |-------------------------------------------------------------|
Eb|----------------------------5-5-5--5-5-5--7-7-7--12-12-12-12-| x4
Bb|-2--2-2-2-2--2--2-2--2-2-2--x-x-x--x-x-x--x-x-x---x--x--x--x-|
F |-2--2-2-2-2--2--2-2--2-2-2--3-3-3--3-3-3--5-5-5--10-10-10-10-|
C |-0--0-0-0-0--0--0-0--0-0-0-----------------------------------|


[Main Riff]

   PM__  PM__  PM__  PM__  PM__    PM__  PM__  PM__  PM__  PM__
C |----------------------------------------------------------------|
G |----------------------------------------------------------------|
Eb|-----9-----9-----9-----9-----14b-----9-----9-----9-----9--------| x1
Bb|-----9-----9-----9-----9-----14b-----9-----9-----9-----9--------|
F |-----7-----7-----7-----7-------------7-----7-----7-----7--------|
C |-0-0---0-0---0-0---0-0---0-0-----0-0---0-0---0-0---0-0---0-0--/-|


[Bridge/Solo]

C |-------------------------------------------------------------------|
G |-------------------------------------------------------------------|
Eb|-------------------15-14-12-15-14-12-15-14-12-12-15-14-12-15-14-12-|
Bb|---5---5-7b8r-7-5/-------------------------------------------------|
F |-7---7-------------------------------------------------------------|
C |-------------------------------------------------------------------|

C |------------------------------|
G |------------------------------|
Eb|-12~12~12~~~~~~12~~~~~~~~~12--|
Bb|------------------------------|
F |------------------------------|
C |------------------------------|


[After the solo]

   PM__  PM__  PM__  PM__  PM__    PM__  PM__  PM__  PM__  PM__
C |----------------------------------------------------------------|
G |----------------------------------------------------------------|
Eb|-----9-----9-----9-----9-----9-9-----9-----9-----9-----9----14b-|
Bb|-----9-----9-----9-----9-----9-9-----9-----9-----9-----9----14b-|
F |-----7-----7-----7-----7-----7-7-----7-----7-----7-----7--------|
C |-0-0---0-0---0-0---0-0---0-0-----0-0---0-0---0-0---0-0---0-0----|
                                   { play this part more times 3x }


[Main Riff]

   PM__  PM__  PM__  PM__  PM__    PM__  PM__  PM__  PM__  PM__
C |----------------------------------------------------------------|
G |----------------------------------------------------------------|
Eb|-----9-----9-----9-----9-----14b-----9-----9-----9-----9--------| x5
Bb|-----9-----9-----9-----9-----14b-----9-----9-----9-----9--------|
F |-----7-----7-----7-----7-------------7-----7-----7-----7--------|
C |-0-0---0-0---0-0---0-0---0-0-----0-0---0-0---0-0---0-0---0-0--/-|


[Chorus]

C |-------------------------------------------------------------|
G |-------------------------------------------------------------|
Eb|----------------------------5-5-5--5-5-5--7-7-7--12-12-12-12-| x4
Bb|-2--2-2-2-2--2--2-2--2-2-2--x-x-x--x-x-x--x-x-x---x--x--x--x-|
F |-2--2-2-2-2--2--2-2--2-2-2--3-3-3--3-3-3--5-5-5--10-10-10-10-|
C |-0--0-0-0-0--0--0-0--0-0-0-----------------------------------|


[Outro]

   PM__  PM__  PM__  PM__  PM__    PM__  PM__  PM__  PM__  PM__
C |----------------------------------------------------------------|
G |----------------------------------------------------------------|
Eb|-----9-----9-----9-----9-----14b-----9-----9-----9-----9--------| x2
Bb|-----9-----9-----9-----9-----14b-----9-----9-----9-----9--------|
F |-----7-----7-----7-----7-------------7-----7-----7-----7--------|
C |-0-0---0-0---0-0---0-0---0-0-----0-0---0-0---0-0---0-0---0-0--/-|


************************************

| x  Dead note
| r  Release
| b  Bend
| /  Slide up
| ~  Vibrato
| PM Palm mute   

************************************

            
            
Suggest correction
Creating personal tab
Creating personal tab
You can edit any tab online and save it as your Personal.

You can edit, replace or remove any tab part or add personal notes – all changes will be seen only by you.

Personal tabs can be accessed anytime from any device, even offline.
Learn more »
comments
print report bad tab
6 comments total. Showing first comments.
+2 reply
JTLOIN 10 Apr 24, 2014 06:06 AM

I think you are missing a 7 at the end of the intro/main riff.
7
5 /

0 reply
JTLOIN 10 Apr 24, 2014 06:09 AM

i think you're missing this at the end of the intro/mainriff

0 reply
JTLOIN 10 Apr 24, 2014 06:18 AM

sorry bout this. Bb chord i mean. String Eb, 7th fret. String Bb, 7th fret. String F, 5th fret. Then slide back up to the C chord.
I think i hear something like that.

guest
You may want to rate the tab now too:
select rating
Wanna post a correction for this tab? Suggest correction