Oops, an error
Loading. Please wait.

Happy Birthday tab

version 2
version 2

Whole song

Interactive

by Kyuss
1,420 views 3 this week
1 commentread comment
1 2 3 4 5
2 more votes to show rating
add to favorites
×
Save as Personal and add changes to this tab that will be seen only by you. Learn more ›
×
You can save this tab as Personal to edit and correct it or add notes. All changes will be seen only by you. Learn more »
launch autoscroll
font size
0
reset
how to read this tab
guitar tuner
edit
Autoscroll
slow
fast
+/-
esc
set tempo
stop
"Happy Birthday" by Kyuss on Sons of Kyuss EP
Original Tab by brian_s

This one is in C standard with several little changes

P   =  pull of
h   =  hammer-on
t   =  tap note
b   =  bend note
x   =  mute note

INTRO:
C------------|---------------------------------------------------------|
G------------|---------------------------------------------------------|
Eb-----------|---------------------------------------------------------|
Bb-----------|---------------------------------------------------------|
F------------|---------------------------------------------------------|
C----7p5h7---|---7x-7x-7x-7x-7x-7x-7x-7x-7x-7x-7x-7x-7x-7x-7x-7x--7b---|

C---------------------------------------------------------------------|
G---------------------------------------------------------------------|
Eb--------------------------------------------------------------------|   2x
Bb-------------------------9-9-12-12-9-9------------------------------|
F--------9-9-12-12-9-9-8-8--------------------------------------------|
C----7-7--------------------------------------------------------------|

C---------------------------------------------------------------------|
G---------------------------------------------------------------------|
Eb--------------------------------------------------------------------|  
Bb-----t12p9---t12p9---t12p9---t12p9---t12p9---t12p9---t12p9---t12p9--|
F---------------------------------------------------------------------|
C---------------------------------------------------------------------|

C---------------------------------------------------------------------|
G---------------------------------------------------------------------|
Eb------t9----t9----t9----t9----t9----t9----t9----t9------------------|  
Bb--------p9----p9----p9----p9----p9----p9----p9----p9----------------|
F---------------------------------------------------------------------|
C---------------------------------------------------------------------|

C---------------------------------------------------------------------|
G---------------------------------------------------------------------|
Eb-----t11---t11---t11---t11---t11---t11---t11----t9------------------|  
Bb--------p9----p9----p9----p9----p9----p9----p9----p9----------------|
F---------------------------------------------------------------------|
C---------------------------------------------------------------------|

C---------------------------------------------------------------------|
G---------------------------------------------------------------------|
Eb--------------------------------------------------------------------|  3x
Bb--------------------------------------------------------------------|
F--------------------9-8-9------------------9-8-----------------------|
C-----7x-7x-7x-7x-7x---------3x-3x-3x-3x-3x-----10--------------------|

C-----------------------------------------------|
G-----------------------------------------------|
Eb----------------------------------------------|  
Bb----------------------------------------------|
F---------------------9-8-9-8-9-8-9-8-9-8-9-8---|
C-----7x-7x-7x-7x-7x----------------------------|


Verse:
C-----------------------------------------------|
G-----------------------------------------------|
Eb---------------------7-7--7x-7x-7x-7x---------|  ---
Bb--9-9--9x-9x-9x-9x---7-7--7x-7x-7x-7x---------|    |
F---9-9--9x-9x-9x-9x---5-5--5x-5x-5x-5x---------|    |
C---7-7--7x-7x-7x-7x----------------------------|    |
                                                     |   8x
C-----------------------------------------------|    |
G-----------------------------------------------|    | 
Eb---------------------9-9--9x-9x-9x-9x---------|    |
Bb--5-5--5x-5x-5x-5x---9-9--9x-9x-9x-9x---------|  ---   
F---5-5--5x-5x-5x-5x---7-7--7x-7x-7x-7x---------|
C---3-3--3x-3x-3x-3x----------------------------|


SOLO:
C---------------------------------------|
G---------------------------------------|
Eb--------------------------------------|
Bb--------------------------------------|
F---------------------------------------|
C----7-7-7-7-7-7-7-7--9-9-9-9-9-9-9-9---|

C--------------------------------------------|
G--------------------------------------------|
Eb-------------------------------------------|
Bb-------------------------------------------|
F----------------9-9-9-9-------------9-9-9-9-|
C----10-10-10-10---------10-10-10-10---------|

C-----------------------------------------|
G-----------------------------------------|
Eb----------------------------------------|
Bb---------9----------9----------9--------|
F-----9-12---12--9-12---12--9-12---12-----|
C-----------------------------------------|

C-------------------------------|
G-------------------------------|
Eb--------------11--------------|  4x
Bb--------11h12---12p11p9-------|
F-------------------------------|
C-------------------------------|

C--------(play 6x)----|---------|
G---------------------|---------|
Eb--------------------|---------|  
Bb------11h12h14h12---|---12b---|
F---------------------|---------|
C---------------------|---------|

C--------------------------------------------------------------|
G--------------------------------------------------------------|
Eb-------------------------------------------------------------|  
Bb-------------------------------------------------------------|
F--------------------------------------------------------------|
C--7h9h10p9--7h9h10p9--7h9h10p9--7h9h10p9--7h9h10p9--7h9h10p9--|

C-----------------------------------------------------------------|
G-----------------------------------------------------------------|
Eb----------------------------------------------------------------|  
Bb----------------------------------------------------------------|
F------9---------9---------9---------9------12-14---14-14-14-14b--|
C--9h10-10---9h10-10---9h10-10---9h10-10--------------------------|


Verse:
C-----------------------------------------------|
G-----------------------------------------------|
Eb---------------------7-7--7x-7x-7x-7x---------|  ---
Bb--9-9--9x-9x-9x-9x---7-7--7x-7x-7x-7x---------|    |
F---9-9--9x-9x-9x-9x---5-5--5x-5x-5x-5x---------|    |
C---7-7--7x-7x-7x-7x----------------------------|    |
                                                     |   8x
C-----------------------------------------------|    |
G-----------------------------------------------|    | 
Eb---------------------9-9--9x-9x-9x-9x---------|    |
Bb--5-5--5x-5x-5x-5x---9-9--9x-9x-9x-9x---------|  ---   
F---5-5--5x-5x-5x-5x---7-7--7x-7x-7x-7x---------|
C---3-3--3x-3x-3x-3x----------------------------|


Bridge:
C-----------------------------------------|
G-----------------------------------------|
Eb---------------7-------------9----------|  
Bb---9-----9-----7-----4-5-----9----------|
F----9-----9-----5-----4-5-----7----------|
C----7-----7-----------2-3----------------|

C--------------------------------------|
G--------------------------------------|
Eb------------7-------------9----------|  5x
Bb---7--9-----7-----4-5-----9----------|
F----7--9-----5-----4-5-----7----------|
C----5--7-----------2-3----------------|


Outro:
C-----------------------------------------------|
G-----------------------------------------------|
Eb---------------------7-7--7x-7x-7x-7x---------|  ---
Bb--9-9--9x-9x-9x-9x---7-7--7x-7x-7x-7x---------|    |
F---9-9--9x-9x-9x-9x---5-5--5x-5x-5x-5x---------|    |
C---7-7--7x-7x-7x-7x----------------------------|    |
                                                     |   6x
C-----------------------------------------------|    |
G-----------------------------------------------|    | 
Eb---------------------9-9--9x-9x-9x-9x---------|    |
Bb--5-5--5x-5x-5x-5x---9-9--9x-9x-9x-9x---------|  ---   
F---5-5--5x-5x-5x-5x---7-7--7x-7x-7x-7x---------|
C---3-3--3x-3x-3x-3x----------------------------|

Happy, happy birthday
Two years dead today
You can't keep me from runnin'
You can't keep me from hiding from you
Don't mess around with me
Messin' with the fire
And I am burnin'
I'm burnin' higher & higher & higher

Happy, happy birthday
Two years dead today
You can't keep me from runnin'
You can't keep me from hiding from you
Don't mess around with me
I'm down to the wire
And I am burnin'
I'm burnin' higher & higher & higher

I keep on runnin'
I never seem to get away from you
I can't escape the memories
That haunt me every night and day
Just you leave me alone
I'm down to the wire
And I am burnin'
Higher & higher & higher ... 
Suggest correction
Creating personal tab
Creating personal tab
You can edit any tab online and save it as your Personal.

You can edit, replace or remove any tab part or add personal notes – all changes will be seen only by you.

Personal tabs can be accessed anytime from any device, even offline.
Learn more »
Give kudos to tab author, rate the tab!
1 2 3 4 5
comments
print report bad tab
1 comment total.
0 reply
RegularMexicola 133 May 28, 2012 01:05 PM

great tab, but I think the verse section has a little bit that's missing:

Verse:
C-------------------------------------------------|
G-------------------------------------------------|
Eb---------------------7-7--7x-7x-7x-7x-----------| ---
Bb--9-9--9x-9x-9x-9x---7-7--7x-7x-7x-7x-----------| |
F---9-9--9x-9x-9x-9x---5-5--5x-5x-5x-5x-----------| |
C---7-7--7x-7x-7x-7x------------------------------| |
| 8x
C-------------------------------------------------| |
G-------------------------------------------------| |
Eb-----------------------9-9--9x-9x-9x-9x---------| |
Bb--4s5-5--5x-5x-5x-5x---9-9--9x-9x-9x-9x---------| ---
F---4s5-5--5x-5x-5x-5x---7-7--7x-7x-7x-7x---------|
C---2s3-3--3x-3x-3x-3x----------------------------|

guest
Wanna post a correction for this tab? Suggest correction