Oops, an error
Loading. Please wait.

Hurricane tab

version 2
version 2

Whole song

Interactive

by Kyuss
11,243 views 3 this week
2 commentsread comments
1 2 3 4 5
x 8
add to favorites
×
Save as Personal and add changes to this tab that will be seen only by you. Learn more ›
×
You can save this tab as Personal to edit and correct it or add notes. All changes will be seen only by you. Learn more »
launch autoscroll
font size
0
reset
how to read this tab
guitar tuner
backing track
0:00
0:00
edit
Autoscroll
slow
fast
+/-
esc
set tempo
stop
Kyuss - Hurricane

Tuning: Down 2 Whole Steps to C (C-F-Bb-Eb-G-C)

Verse

riff 1:
|-----------------------------------------------|
|-----------------------------------------------|
|--11---11--11-/13\-11-11-/14\-11-11-8--8--9-9\-|
|--12---12--12-/14\-12-12-/13\-12-12------------|
|--12---12--12-/14\-12-12-/13\-12-12------------|
|--9----9---9--/12\-9--9--/11\-9--9-------------|


riff 2:
|-----------------------------------------------|
|-----------------------------------------------|
|--11---11--11-/13\-11-11-/14\-11-11-9--9--8-8\-|
|--12---12--12-/14\-12-12-/13\-12-12------------|
|--12---12--12-/14\-12-12-/13\-12-12------------|
|--9----9---9--/12\-9--9--/11\-9--9-------------|

Chorus
|-----------------------------------------------------------|
|-----------------------------------------------------------|
|--11---11--/13-13-13-12-12-12-12-12-12-12-12-12-12-11-11-11|
|--12---12--/14-14-14-13-13-13-13-13-13-13-13-13-13-12-12-12|
|--12---12--/14-14-14-13-13-13-13-13-13-13-13-13-13-12-12-12|
|--9----9---/12-12-12-11-11-11-11-11-11-11-11-11-11-10-10-10|

Ending
|---------------------------------------------------|
|---------------------------------------------------|
|--11-11-11\10-10-10\8-8-8\9-9-9\8-8-8\5-5-5\4-4-4--|
|--12-12-12\11-11-11\9-9-9\8-8-8\7-7-7\6-6-6\5-5-5--|
|--12-12-12\11-11-11\9-9-9\8-8-8\7-7-7\6-6-6\5-5-5--|
|--9--9--9-\8--8--8-\7-7-7\6-6-6\5-5-5\4-4-4\3-3-3--|

Songmap

Drums Intro 

riff 1 3x

riff 2 1x

riff 1 3x

riff 2 1x

riff 1 3x

riff 2 1x 

riff 1 3x

riff 2 1x

riff 1 3x

riff 2 1x

Chorus 4x

riff 1 3x

riff 2 1x

riff 1 1x

riff 2 1x

riff 1 1x

riff 2 1x

riff 1 1x

riff 2 1x

Chorus 4x

Ending


            
            
Suggest correction
Creating personal tab
Creating personal tab
You can edit any tab online and save it as your Personal.

You can edit, replace or remove any tab part or add personal notes – all changes will be seen only by you.

Personal tabs can be accessed anytime from any device, even offline.
Learn more »
comments
print report bad tab
2 comments total.
0 reply
CaptnWar 70 Jun 22, 2008 02:49 PM

it says "drop c" but it looks like c standard. looks good though

+1 reply
we_built_a_tree 50 Sep 06, 2008 06:10 AM

it sounds rather like normal power chords than major. excellent tab though, 5 stars

guest
Wanna post a correction for this tab? Suggest correction