Oops, an error
Loading. Please wait.

Hurricane Tab

version 4
version 4

Whole song

Interactive

2,245 views 6 this week
no commentswrite comment
1 2 3 4 5
x 3
add to favorites
launch autoscroll
font size
0
reset
how to read this tab
guitar tuner
Autoscroll
slow
fast
+/-
esc
set tempo
stop
Help us to improve Ultimate-Guitar.com Take our survey!
×
Hurricane
-----------------------------------------------------------------------------
Tabbed by: Shotgun Jesus

Tuning: C standard, low to high : C F A# D# G C

1st riff

C |--------------------------------------------------------------------|
G |--------------------------------------------------------------------|
D#|-----------------------------------------9-9-10-10------------------|
A#|-11-11-11-/14\-11-11-11-/13\-11-11-11-------------------------------|
F |-11-11-11-/14\-11-11-11-/13\-11-11-11-------------------------------|
C |-9--9--9--/12\-9--9--9--/11\-9--9--9--------------------------------|

2nd riff

C |--------------------------------------------------------------------|
G |--------------------------------------------------------------------|
D#|-----------------------------------------10-10-9-9------------------|
A#|-11-11-11-/14\-11-11-11-/13\-11-11-11-------------------------------|
F |-11-11-11-/14\-11-11-11-/13\-11-11-11-------------------------------|
C |-9--9--9--/12\-9--9--9--/11\-9--9--9--------------------------------|

chorus

C |--------------------------------------------------------------------|
G |--------------------------------------------------------------------|
D#|--------------------------------------------------------------------|
A#|-11-11-14-14-14-13-13-13-13-13-13-13-13-13-13-13-13-13-13-13-13-13--|
F |-11-11-14-14-14-13-13-13-13-13-13-13-13-13-13-13-13-13-13-13-13-13--|
C |-9--9--12-12-12-11-11-11-11-11-11-11-11-11-11-11-11-11-11-11-11-11--|

C |--------------------------------------------------------------------|
G |--------------------------------------------------------------------|
D#|--------------------------------------------------------------------|
A#|-13-13-13-12-12-12--------------------------------------------------|
F |-13-13-13-12-12-12--------------------------------------------------|
C |-11-11-11-10-10-10--------------------------------------------------|

outro:

C |--------------------------------------------------------------------|
G |--------------------------------------------------------------------|
D#|--------------------------------------------------------------------|
A#|-11-11-10-10-9-9-8-8-7-7-6-6-5-5-4-4-3-3-2-2-(2)--------------------|
F |-11-11-10-10-9-9-8-8-7-7-6-6-5-5-4-4-3-3-2-2-(2)--------------------|
C |-9--9--8--8--7-7-6-6-5-5-4-4-3-3-2-2-1-1-0-0-(0)--------------------|


riff 1 x 3
riff 2
riff 1 x 3
riff 2
riff 1
riff 2
riff 1
riff 2
riff 1
riff 2
riff 1 x 3
riff 2 x 1
chorus x 4
riff 1
riff 2
riff 1
riff 2
riff 1
riff 2
riff 1
riff 2
riff 1
riff 2
chorus x 4
outro
Suggest correction
Give kudos to tab author, rate the tab!
1 2 3 4 5
comments
print report bad tab
guest
You may want to rate the tab now too:
select rating
Wanna post a correction for this tab? Suggest correction