Oops, an error
Loading. Please wait.

Love Has Passed Me By Tab

version 1
version 1

Whole song

Interactive

3,913 views 3 this week
no commentswrite comment
1 2 3 4 5
x 5
add to favorites
launch autoscroll
font size
0
reset
how to read this tab
guitar tuner
×
Best way to learn
"Love Has Passed Me By"
Autoscroll
slow
fast
+/-
esc
set tempo
stop
Love has Passed me by - Kyuss
From the album Wretch
Tabbed by MattWV

Slide down - \
Slide up - /
Play muted string - X
Hammer on - h
Pull off - p
Bend - b
Release bend - r
Pick Hand Muting - P.M.===

Tuning - C F A# D# G c or B E A D F# b
You can play it in Standard, but Kyuss wouldn't want you to!

Intro
c |---------------------------------------------------| 
G |---------------------------------------------------| 
D#|---------------------------------------------------|
A#|-9\---------9-9-9—-7/9-9---9-----------9-----------|
F |-7\--X-X-X--7-7-7—-5/7-7---7--X-X-X-X--7-----------|
C |---------------------------------------------------|

Verse
c |-----------------------------------------------------|
G |-----------------------------------------------------|
D#|-----------------------------------------------------|
A#|-9-----------9-9-9—-7/9-9---9-----------9-9-9—-7/9\7-| x2
F |-7---X-X-X-X-7-7-7—-5/7-7---7—--X-X-X-X-7-7-7—-5/7\5-|
C |-----------------------------------------------------|

c |-------3----------5--------------------------------|
G |---------3----------5------------------------------|
D#|-5--5-------7--7-----------------------------------|
A#|-5--5-------7--7-------9----------9-9-9—-9b10-9-9--|
F |-3--3-------5--5-------7--X-X-X-X-7-7-7—-7b8--7-7--|
C |---------------------------------------------------|

Chorus
c |-------3--3--------5--5-------------------------| 
G |-------3--3--------5--5-------------------------| 
D#|-5--5--5-----7--7--7-----4--4--4--4--9--9--9--7-|
A#|-5--5--5-----7--7--7-----4--4--4--4--9--9--9--7-|
F |-3—-3--3-----5--5--5-----2--2--2--2--7--7--7--5-|
C |------------------------------------------------|

c |------------------------------------------------| 
G |------------------------------------------------| 
D#|-5--5--5--5--7--7--7--7--4--4--4--4--9--9--9--7-|
A#|-5--5--5--5--7--7--7--7--4--4--4--4--9--9--9--7-|
F |-3—-3--3--3--5--5--5--5--2--2--2--2--7--7--7--5-|
C |------------------------------------------------|

c |-------3------------5----------------------------| 
G |----------3------------5-------------------------| 
D#|-5--5---------7--7--------4--4--4--4--9--9--9--7-|
A#|-5--5---------7--7--------4--4--4--4--9--9--9--7-|
F |-3—-3---------5--5--------2--2--2--2--7--7--7--5-|
C |-------------------------------------------------|

c |-------3------------5-------------------------------------| 
G |----------3------------5----------------------------------| 
D#|-5--5---------7--7----------------------------------------|
A#|-5--5---------7--7--------9-9-9-9-9-9-9-9-9-9-9-9-9-9-9-9-|
F |-3—-3---------5--5--------7-7-7-7-7-7-7-7-7-7-7-7-7-7-7-7-|
C |----------------------------------------------------------|

Solo
c |------------------------------------------------------| 
G |------------------------------------------------------| 
D#|-----------------------------------9-9-12b14r12---9-9-|
A#|---------------7-7-9-9-10-10-12-12--------------------|
F |-7-7-9-9-10-10----------------------------------------|
C |------------------------------------------------------|
    P.M.=============================

c |-12--12-----------12------------12---------------------------------| 
G |--------15-12--15-----15-12--15----15---12h13-12h13-12h13-12h13-12-| 
D#|-------------------------------------------------------------------|
A#|-------------------------------------------------------------------|
F |-------------------------------------------------------------------|
C |-------------------------------------------------------------------|

c |-------------------------------------------| 
G |-------------------------------------------| 
D#|-------------------------------------------|
A#|--------------10--9--7---------------------|
F |-------0-2-3------------10--9—9h10p9-7-----|
C |-0-2-3-------------------------------------|
    P.M.=======

c |------------------------------------------------------| 
G |-----------------------------------3b4---------5b6----| 
D#|----------------------------------------5-----------7-|
A#|-10--9--7---------------------------------------------|
F |-----------10--9—7--10--9-7------3-----------5--------|
C |------------------------------------------------------|

c |--------------------------------------------------| 
G |--------------------------------------------------| 
D#|-------12-----------12-14b16—-------------12------|
A#|-12h14----14--12h14---------------------------14--| back to verse
F |--------------------------------------------------|
C |--------------------------------------------------|

Ending
c |------------------------------------| 
G |------------------------------------| 
D#|-55555555-77777777-9999999999999999-|
A#|-55555555-77777777-9999999999999999-| x3
F |-33333333—55555555-7777777777777777-|
C |------------------------------------|

c |------------------------------------| 
G |------------------------------------| 
D#|-5--5-----7--7-----9----------------|
A#|-5--5-----7--7-----9----------------|
F |-3--3-----5--5-----7----------------|
C |------------------------------------|

c |----------------------------------------------------| 
G |----------------------------------------------------| 
D#|----------------------------------------------------|
A#|----------------------7-7-7-9-9-9-10-10-10-12-12-12-|
F |-7-7-7-9-9-9-10-10-10-------------------------------|
C |----------------------------------------------------|
   P.M.==============================================

c |-----------------------------------------------------| 
G |-----------------------------------------------------| 
D#|-9b11----9b11----9b11r9—---7h9-7h9-7h9p7-------------|
A#|-----------------------------------------9—-7h9p7----|
F |--------------------------------------------------7--|
C |-----------------------------------------------------|

Song Structure
Intro x1
Verse x4
Chorus x1
Verse x4
Chorus x1
Solo x1 (played over Verse x2)
Verse x2
Ending x1
Suggest correction
comments
print report bad tab
guest
You may want to rate the tab now too:
select rating
Wanna post a correction for this tab? Suggest correction