Oops, an error
Loading. Please wait.

Molten Universe Ukulele Chords

version 1
version 1

Whole song

  • Ukulele tab for the riffs.

Interactive

16 views 3 this week
no commentswrite comment
1 2 3 4 5
3 more votes to show rating
add to favorites
launch autoscroll
font size
0
reset
transpose
0
reset
display chords
guitar tuner
Autoscroll
slow
fast
+/-
esc
set tempo
stop
Help us to improve Ultimate-Guitar.com Take our survey!
×
Author
About this tab version
Ukulele tab for the riffs. Was this info helpful? Yes No
[Intro] (x2) 
(Whole Notes/Slow playing)
A|-----------6----------6----------------------------------|
E|---8-----8----8-----8-----8-6b~-------8--------8b~-------|
C|-0---5-0----0---5-0-----0--------5--5---5--5-6-----------|
G|---------------------------------------------------------|

A|---------------------------------------------------------|
E|---8-----8----8-----8-----8-6b~-------8--------8b~-------|
C|-0---5-0---5-0---5-0---5-0--------5--5---5--5-6----------|
G|---------------------------------------------------------|

[Bridge] (x4)
(Eight Notes/Fast down strokes with a palm mute)
A|-3-3---3-3---3-3---3-3---3--3--8-8---8-8---8-9--9-9-9-9-9-9-----|
E|-1-1---1-1---1-1---1-1---1--1--6-6---6-6---6-7--7-7-7-7-7-7-----|
C|-0-0---0-0---0-0---0-0---0--0--5-5---5-5---5-6--6-6-6-6-6-6-----|
G|----------------------------------------------------------------|

[Outro] (x4)
(Similar to Riff 1 but Quarter Notes/Fast up and down playing)
A|-----------6------------6------9--9-9--7---3----3-8s9--8s9---|       
E|---8-----8----8-----6h8---6b~--7--7-7--4-----4----6s7--6s7---|                        
C|-0---5-0----0---5-0------------6--6-6--3---0-3--0-5s6--5s6---|                
G|-------------------------------------------------------------|


************************************

| h  Hammer-on

************************************
Suggest correction
Give kudos to tab author, rate the tab!
1 2 3 4 5
comments
print report bad tab
guest
You may want to rate the tab now too:
select rating
Wanna post a correction for this tab? Suggest correction