Oops, an error
Loading. Please wait.

Phototropic Bass Tab

4,023 views 3 this week
no commentswrite comment
1 2 3 4 5
please rate
add to favorites
launch autoscroll
font size
0
reset
guitar tuner
Autoscroll
slow
fast
+/-
esc
set tempo
stop
Help us to improve Ultimate-Guitar.com Take our survey!
×
Difficulty
Tuning
novice
C F A# D# G C
Hello everyone!
It's my 1st tab.
I'm still working on it. I do my best :)
Hope you will improve it a bit, cause I think this tab is a bit wrong.
Pleace, email me (dobix@wp.pl), if you have a better idea to play this amazing,chilly song :)

You play it  in C tuning

Eb|-----------------------------------------|
Bb|-----------------------------------------|
F |-------3/5-777777--5-5~----5-5-5h7-0h3---|
C |--0-0------------------------------------| (

Eb|-----------------------------------------|
Bb|-----------------------------------------|
F |-------3/5-777777--5-5~-(5)-5/777p5-0h3--|
C |--0-0------------------------------------| (
 
It changes a bit in (1:10)

Eb|-----------------------------------------|
Bb|--------------------------/5-4-----------|
F |-------3/5-777777--5-5~---------7/-------|
C |--0-0------------------------------------| 

Eb|-----------------------------------------|
Bb|-----------------------------------------|
F |-------3/5-777777--5-5~----(5)-(0)-------|
C |--0-0----------------------------(3)-----|

(1:18)

Eb|-----------------------------------------|
Bb|-----------------------------------------|
F |-------3/5-777777--5-5~----5-5-5h7-0h3---|
C |--0-0------------------------------------| 

Eb|-----------------------------------------|
Bb|-----------------------------------------|
F |-------3/5-777777--5-5~-(5)-5/777p5-0h3--|
C |--0-0------------------------------------| 

Eb|-----------------------------------------|
Bb|-----------------------------------------|
F |-------3/5-777777--5-5~--------555h7-0---|
C |--0-0------------------------------------| 

Eb|-----------------------------------------|
Bb|-----------------------------------------|
F |-------3/5-777777--5-5~----------5/7/0---| (slow slide from 7 to 0)
C |--0-0------------------------------------| 

Eb|-----------------------------------------|
Bb|-----------------------------------------|
F |-------3/5-777777--5-5~----5-5-5h7-0h3---|
C |--0-0------------------------------------| 

Eb|-----------------------------------------|
Bb|-----------------------------------------|
F |-------3/5-777777--5-5~-(5)-5/777p5-0h3--|
C |--0-0------------------------------------| 

Eb|-----------------------------------------|
Bb|-----------------------------------------|
F |-------3/5-777777--5-5~-5h7p5-------3----|
C |--0-0-------------------------0-3-5------| 

Eb|-----------------------------------------|
Bb|-----------------------------------------|
F |-------3/5-777777--5-5~-------7/0--------|
C |--0-0------------------------------------| 

So, that's it. And then chords go like this:
-
Eb|-----------------------------------------|
Bb|-----------------------------------------|
F |-----------------55555555555-------------|
C |--0-0--0000000---------------------------| 
-
Suggest correction
Give kudos to tab author, rate the tab!
1 2 3 4 5
comments
print report bad tab
guest
You may want to rate the tab now too:
select rating
Please do not post tabs as comments. Select "correction" instead!