Oops, an error
Loading. Please wait.

Space Cadet Tab

version 1
version 1

Whole song

Interactive

by Kyuss
40,457 views 69 this week
2 commentsread comments
1 2 3 4 5
1 last vote to show rating
add to favorites
×
Save as Personal and add changes to this tab that will be seen only by you. Learn more ›
×
You can save this tab as Personal to edit and correct it or add notes. All changes will be seen only by you. Learn more »
save as personal
new!
launch autoscroll
font size
0
reset
how to read this tab
guitar tuner
Autoscroll
slow
fast
+/-
esc
set tempo
stop
Tuning
E A D G B E
Author/Artist: Kyuss
Title: Space Cadet
Album: Sky Valley
Transcribed by: southpaw25@ziplip.com
Username: okregisterme


detune all strings one and one half notes from standard

here are some basic parts, listen for fills and variations
also an electric guitar plays fills

[Verse]
(at 3:10) - acoustic guitar

C#|----------------------------------------------------------------|
G#|----------------------------------------------------------------|
E |-------------7------7--6h7p6------------------7------7--6h7--6--|
B |------------------------------7---------------------------------|
F#|-7--7----------------------------7---7--------------------------|
C#|-0--0--%--0------0---------------0---0--%--0------0-------------|

                                     .
C#|-----------------------------------------------------------------|
G#|-----------------------------------------------------------------|
E |-------------7------7--6h7p6--------6--6h7-----6h7--6h7--6h7--6--|
B |------------------------------7----------------------------------|
F#|-7--7------------------------------------------------------------|
C#|-0--0--%--0------0---------------0----------0--------------------|


[Chorus]

                               .        .                            .  .       ~
C#|---------------------------------------------------------------------------------|
G#|-8--8-----8---8--8--8-----8/(10)---8/(10)---8-----7---8--7h8p7-------------------|
E |-x--x-----x---x--x--x-----x--------x--------x-------------------9--7--9--9s---9--|
B |-5--5--%--5---5--5--5-----5/(7)----5/(7)----5------------------------------------|
F#|---------------------------------------------------------------------------------|
C#|---------------------------------------------------------------------------------|

                             .        .                                      ~
C#|--------------------------------------------------------10--------------------|
G#|-8--8-----8---8---8-----8/(10)---8/(10)---8-----7h8p7-------8--7-----7--------|
E |-x--x-----x---x---x-----x--------x--------x-----------------------9-----9--9--|
B |-5--5--%--5---5---5-----5/(7)----5/(7)----5-----------------------------------|
F#|------------------------------------------------------------------------------|
C#|------------------------------------------------------------------------------|

[Verse 2]

  guitar 1 - acoustic

C#|-------------------------|
G#|-8--8-----8--------------|
E |-9--9-----9--------------|
B |-9--9-----9--------7--7--|
F#|-7--7--%--7--------------|
C#|----------------0--------|
|
| guitar 2 - acoustic
|
C#|-------------------------10--12--12--|
G#|-------------------------------------|
E |-12--12-----12---12--12--------------|
B |-x---x------x------------------------|
F#|-10--10--%--10-----------------------|
C#|-------------------------------------|

repeat chorus and 2nd verse, then solo
then repeat 1st verse, chorus, 2nd verse, and end with another chorus


************************************

| %  rest
| h  hammer-on
| p  pull-on
| x  muted string
| /  slide up
| (fret number) - sound the note by sliding into it, don't pick
| .  sound the note then dampen immediately
| s  semi-tone bend
| ~  vibrato

************************************
Suggest correction
Give kudos to tab author, rate the tab!
1 2 3 4 5
comments
print report bad tab
2 comments total.
0 reply
rickray 10 Nov 21, 2006 07:45 PM

Love Kyuss......some skit missing though.....would like an update
proper tuning....what is posted sounds accurate to me......found more of an open chord style on some notes...sounded a lil' better

0 reply
sberube1979 122 Sep 28, 2007 02:16 PM

Pretty sure its tuned 3 steps down (Db, Gb, Eb ect.) This is pretty good for the basics to jam around on but not 100%

guest
Wanna post a correction for this tab? Suggest correction