Oops, an error
Loading. Please wait.

Space Cadet tab

version 2
version 2

Whole song

Interactive

by Kyuss
75,538 views 303 this week
6 commentsread comments
1 2 3 4 5
x 25
add to favorites
×
Save as Personal and add changes to this tab that will be seen only by you. Learn more ›
×
You can save this tab as Personal to edit and correct it or add notes. All changes will be seen only by you. Learn more »
launch autoscroll
font size
0
reset
how to read this tab
guitar tuner
edit
Autoscroll
slow
fast
+/-
esc
set tempo
stop
Author
Difficulty
Unregistered
Kyuss
Space Cadet


Great song, by a great band! This is just the main guitar tab so..I’m pretty sure josh 
his guitar 2 whole steps.
And, please, i dont mind if u copy paste this tab to another site, but dont change the email =)
Thanks! Have Fun!


 Part 1
|-----------------------------------------------------------------------------------------------------|
|-----------------------------------------------------------------------------------------------------|
|-----------------------------------------------------------------------------------------------------|
|--5/7---7/9---9/10---10/12---12/13---12/13-12-13-15---13\12---12\10----10\9---9\7---7\5----4/5-4-----|
|0-----0-----0------0-------0------------------------0-------0-------0-------0-----0------0--------5--|

e|----------------|
B|----------------|
G|----------------|
D|----------------|
A|-4/7-5-4h5p4-0--|
E|----------------|

  Part 2
e|----------------------------------------------------------|
B|----------------------------------------------------------|
G|----------------------------------------------------------|
D|----------------------------------------------------------|
A|----7---7------7---7-----5---5----4/5-4---4/7-5-4h5p4-0---|
E|--0---0------0---0-----0---0----0-------5-----------------|

  Part 3
e|-----------------------------------------------------------------------------------------|
B|-----------------------------------------------------------------------------------------|
G|-----------------------------------------------------------------------------------------|
D|-----------------------------------------------------------------------------------------|
A|-------10---7p5-------------------------5/7---------10---7p5------------5-5h7------------|
E|-0-0-%----0-----3--0-0-%-3----0-3-5-5/7-------0-0-%----0-----3--0-3-5-7-------5h7--5-----|

  Part 4
e|-----------------------------|
B|-----------------------------|
G|-----------------------------|
D|-----------------------------|
A|-5-5--5-7-5-4/5\4------------|
E|--------------------0-3-3-0--|

  Part 5
e|--------------------------------|
B|--------------------------------|
G|--------------------------------|
D|--------------------------------|
A|-5-5--5-7-5-5/12--10/9-10/9-7---|
E|------------------------------0-|

I Divided the tab in parts, just listen to the song, and figure it out how to play them!



************************************

| h  Hammer-on
| p  Pull-off
| /  Slide up
| \  Slide down

************************************

            
            
Suggest correction
Creating personal tab
Creating personal tab
You can edit any tab online and save it as your Personal.

You can edit, replace or remove any tab part or add personal notes – all changes will be seen only by you.

Personal tabs can be accessed anytime from any device, even offline.
Learn more »
comments
print report bad tab
6 comments total. Showing first comments.
-1 reply
riffmerchant 81 Jun 16, 2009 06:25 PM

decent tab few errors but are common sense for any player to know what to do, like the slides etc one of my favs from kyuss

+2 reply
bobbass4k 766 Feb 09, 2010 05:21 AM

this is the bass part, scott reeder plays it on an acoustic bass

+1 reply
DevilsRedRider 60 Jul 06, 2012 05:11 PM

really good job man! the tunning is correct but i prefer to play it in drop D. just shift all the 5th string nptes down 2 steps and off you go. kyuss = amazing

guest
Wanna post a correction for this tab? Suggest correction