Oops, an error
Loading. Please wait.

Supa Scoopa And Mighty Scoop tab

version 2
version 2

Whole song

Interactive

by Kyuss
30,681 views 120 this week
14 commentsread comments
1 2 3 4 5
x 10
add to favorites
×
Save as Personal and add changes to this tab that will be seen only by you. Learn more ›
×
You can save this tab as Personal to edit and correct it or add notes. All changes will be seen only by you. Learn more »
launch autoscroll
font size
0
reset
how to read this tab
guitar tuner
edit
Autoscroll
slow
fast
+/-
esc
set tempo
stop
-------------------------------------------------------------------------------
                      Kyuss – Supa Scoopa And Mighty Scoop
-------------------------------------------------------------------------------

Tabbed by: brian_s
Email: branimir.sremec@kc.t-com.hr


[Intro/Verse 1]

Don't try to take me away…
C |---------------------------------------|
G |---------------------------------------|
D#|---------------------------------------|
A#|---------------------------------------|
F |-----0--0x-0x-0x-----0—-0x-0x-0x-------|
C |---------------------------------------|

C |---------------------------------------------------|
G |---------------------------------------------------|
D#|---------------------------------------------------|
A#|---------------------------------------------------|
F |-----12-—-12x-12x-12x-----12-—-12x-12x-12x---------|
C |---------------------------------------------------|(x6)

C |------------------------------------------------|
G |------------------------------------------------|
D#|------------------------------------------------|
A#|----10—-10x-10x-10x-----10—-10x-10x-10x---------|
F |------------------------------------------------|
C |------------------------------------------------|

C |--------------------------------------------|
G |--------------------------------------------|
D#|--------------------------------------------|
A#|----12—-12x-12x-12x-----9—-9x-9x-9x---------|
F |--------------------------------------------|
C |--------------------------------------------|


[Verse 2]

Fight me lately, tried to someone…
C |---------------------------------------------------------------------------|
G |---------------------------------------------------------------------------|
D#|---------------------------------------------------------------------------|
A#|---7-7-7-7-7-7-7-7-7-7-7-7-7--10-10-10-10-10-10-10--12-12-12-12--9-9-9-9---|
F |---7-7-7-7-7-7-7-7-7-7-7-7-7--10-10-10-10-10-10-10--12-12-12-12--9-9-9-9---|
C |---5-5-5-5-5-5-5-5-5-5-5-5-5--8--8--8--8--8--8--8---10-10-10-10--7-7-7-7---|(x4)


[Chorus]

And you know…
C |-------------------------------------------------|
G |-------------------------------------------------|
D#|-------------------------------------------------|
A#|----7-7-7-7-7-7-7-7-7-7--------------------------|
F |----7-7-7-7-7-7-7-7-7-7---10-------10p0-8p10-----|
C |----5-5-5-5-5-5-5-5-5-5------8-8-----------------|

C |---------------------------------------|
G |---------------------------------------|
D#|--------7h9-9--------------------------|
A#|---------------------------------------|
F |----0-0---------10-------10p0-8p10-----|
C |-------------------8-8-----------------|(x4)


[Post-Chorus]

C |---------------------------------------|
G |---------------------------------------|
D#|-----------------10h12-12--------------|
A#|--------------10----------10-10--------|
F |----0-0—-10h12-------------------------|
C |---------------------------------------|(x8)


[Verse 3]

Hangin' low today, I replace the highway…
C |---------------------------------------------------------------------------|
G |---------------------------------------------------------------------------|
D#|---------------------------------------------------------------------------|
A#|---7-7-7-7-7-7-7-7-7-7-7-7-7--10-10-10-10-10-10-10--12-12-12-12--9-9-9-9---|
F |---7-7-7-7-7-7-7-7-7-7-7-7-7--10-10-10-10-10-10-10--12-12-12-12--9-9-9-9---|
C |---5-5-5-5-5-5-5-5-5-5-5-5-5--8--8--8--8--8--8--8---10-10-10-10--7-7-7-7---|(x6)


[Chorus]

And you know…
C |-------------------------------------------------|
G |-------------------------------------------------|
D#|-------------------------------------------------|
A#|----7-7-7-7-7-7-7-7-7-7--------------------------|
F |----7-7-7-7-7-7-7-7-7-7---10-------10p0-8p10-----|
C |----5-5-5-5-5-5-5-5-5-5------8-8-----------------|

C |---------------------------------------|
G |---------------------------------------|
D#|--------7h9-9--------------------------|
A#|---------------------------------------|
F |----0-0---------10-------10p0-8p10-----|
C |-------------------8-8-----------------|(x4)


[Post-Chorus]

C |-----------------------------------------|
G |-----------------------------------------|
D#|-----------------10h12-12----------------|
A#|--------------10----------10-10----------|
F |----0-0—-10h12---------------------------|
C |-----------------------------------------|(x14)


[Pre-Solo]

C |---------------------------------------------|
G |---------------------------------------------|
D#|----------------------12h14------------------|
A#|-----------------10-----------12b-12p10------|
F |----0--0----10h12----------------------------|
C |---------------------------------------------|(x4)


[Solo]

W/subtle use of wah wah

(03:17)
C |---------------------------------------------|
G |---------------------------------------------|
D#|---------------------------------------------|
A#|---12b—--10h12p10-----12b—--10h12p10---------|
F |---------------------------------------------|
C |---------------------------------------------|

(03:28)
C |--------------------------------------------------------|
G |----13-13b-13b-13b—13b-13b-13b-13b---13b-10----10-------|
D#|-------------------------------------------12-----------|
A#|--------------------------------------------------------|
F |--------------------------------------------------------|
C |--------------------------------------------------------|

(03:38)
C |-----------------------------------------------------------------------|
G |----13br-10----13br-10----13br-10----13br-10----13br-10----13br-10-----|
D#|-----------------------------------------------------------------------|
A#|-----------------------------------------------------------------------|
F |-----------------------------------------------------------------------|
C |-----------------------------------------------------------------------|

(03:49)
C |-------------------------------------------------------|
G |----13p10—13p10------13p10—13p10------13p10------------|
D#|---------------12---------------12---------12----------|
A#|-------------------------------------------------------|
F |-------------------------------------------------------|
C |-------------------------------------------------------|(x2)

(04:04)
C |----17-17--20b---17h20p17----17-17-----|
G |--------------------------20-----------|
D#|---------------------------------------|
A#|---------------------------------------|
F |---------------------------------------|
C |---------------------------------------|(x2)

(04:10)
C |----------------------------------|--------------------------------|
G |----20b-20b-20b-20b-20b-20b-20b---|---20--17----20p17-20p17--------|
D#|----------------------------------|-------------------------19-----|
A#|----------------------------------|--------------------------------|
F |----------------------------------|--------------------------------|
C |----------------------------------|--------------------------------|(x2)

(04:28)
C |--------------------------------------------------------------|
G |--------------------------------------------------------------|
D#|---19~~17~~-19~~17~~-19~~17~~-19~~17~~-19~~17~~-19~~17~~------|
A#|--------------------------------------------------------------|
F |--------------------------------------------------------------|
C |--------------------------------------------------------------|

C |---------------------------------------------|
G |---------------------------------------------|
D#|----------------------12h14------------------|
A#|------------------10----------12b-12p10------|
F |----0--0----10h12----------------------------|
C |---------------------------------------------|(x4)

C |----------------|
G |----------------|
D#|----------------|
A#|----7-7---------|
F |----7-7---------|
C |----5-5---|(x18-|

************************************

| br    bend release
| b     bend
| h     hammer-on
| p     pull off
| ~     vibratio
| x     mute
| +     harmonic

************************************

            
            
Suggest correction
Creating personal tab
Creating personal tab
You can edit any tab online and save it as your Personal.

You can edit, replace or remove any tab part or add personal notes – all changes will be seen only by you.

Personal tabs can be accessed anytime from any device, even offline.
Learn more »
comments
print report bad tab
14 comments total. Showing first comments. show 1 bad comment
+5 reply
brian_s 1,309 Mar 24, 2013 04:46 PM

Oh, and most importantly. If you'd tune the guitar C,F,B,E,G,C. You'd completley **** up the interval know as the perfect fourth, by wich the guitar is tuned. A standard power chord fingering (root, fifth and root octave) would sound off, because the octave wouldn't match the root.
C,F,A#,D#,G,C is the perfect fourth. It sounds just a little bit different on the 2nd & 3rd string. But everything is in place.

+3 reply
brian_s 1,309 Mar 24, 2013 03:27 AM

OK. Here's how it goes. When you tune down, you tune by going from pitch to pitch. Semitone to semitone. Some notes don't have a semitone between them. B & C and E & F. So when you tune down from lets aay E standard to C standard (wich is 4 semitones) you go like this (I'll just give you two examples). The 6th string: E > D# >D > C# > C. The 4th string: D > C# > C > B > A#.

You can also check it out here. http://en.wikipedia.org/wiki/C_tuning_(guitar)

I've played my share of kyuss and qotsa tunes back in the day and it does not sound like crap. This is the way it's supposed to sound.
I learned the tunning form guitar pro software. So I'm pretty sure the people writing the software know their theory (I never doubted it, I't made sense to might right from the start).

guest
You may want to rate the tab now too:
select rating
Wanna post a correction for this tab? Suggest correction