Oops, an error
Loading. Please wait.

Thumb Bass Tab

version 1
version 1

Whole song

Interactive

4,727 views 3 this week
no commentswrite comment
1 2 3 4 5
1 last vote to show rating
add to favorites
launch autoscroll
font size
0
reset
guitar tuner
Autoscroll
slow
fast
+/-
esc
set tempo
stop
Help us to improve Ultimate-Guitar.com Take our survey!
×
Difficulty
Tuning
intermediate
C F A# D# G C
Kyuss - Thumb

Tuning: C F Bb Eb

INTRO

Eb------------------|
Bb------------------|
 F-(0)~~~~~~~~~~~~~-|  The intro background noise is bass feedback
 C------------------|

(Drums kick in)

Eb-----------------------------------------|
Bb-----------------------------------------|
 F---------------------------------------3-|
 C-5-5-3h5h6-5-5-3h5h6-5-5-3h5h6-5-5-3h5---|

VERSE

Eb------------------------------------------|
Bb------------------------------------------|
 F-0-0-0h1-0-0--0-0h1-0-0--0-0h1-0-0--0---3-|
 C--------------------------------------1---|

CHORUS

Eb--------------------------|
Bb--------------------------|
 F----------------5-5---5-5-|
 C-1-11111-1111-5-----5-----|

Eb--------------------------|
Bb--------------7-----7-----|
 F-7-77777-7777---5-5---5-5-|
 C--------------------------|

Eb--------------------------|
Bb--------------------------|
 F----------------5-5---3-3-|
 C-1-11111-1111-5-----3-----|

SOLO

Eb------------|
Bb------------|
 F------------| X4
 C-5--5-5-6-5-|

Eb-----------------------------------------|
Bb-----------------------------------------|
 F---------------------------------------3-|
 C-5-5-3h5h6-5-5-3h5h6-5-5-3h5h6-5-5-3h5---|

VERSE

Eb------------------------------------------|
Bb------------------------------------------|
 F-0-0-0h1-0-0--0-0h1-0-0--0-0h1-0-0--0---3-|
 C--------------------------------------1---|

CHORUS

Eb--------------------------|
Bb--------------------------|
 F----------------5-5---5-5-|
 C-1-11111-1111-5-----5-----|

Eb--------------------------|
Bb--------------7-----7-----|
 F-7-77777-7777---5-5---5-5-|
 C--------------------------|

Eb--------------------------|
Bb--------------------------|
 F----------------5-5---3-3-|
 C-1-11111-1111-5-----3-----|

OUTRO

Eb------------------|
Bb------------------|
 F-0-00-3332-2-656/-| As you get close to the end
 C------------------|  gradually speed up

Eb----------------|
Bb----------------|
 F-(end on)-0~~~~-|
 C----------------|

I noticed the lack of bass tableture so here's my two cents. Don't know about the 
but the notes are right. Please Rate.
Suggest correction
Give kudos to tab author, rate the tab!
1 2 3 4 5
comments
print report bad tab
guest
You may want to rate the tab now too:
select rating
Wanna post a correction for this tab? Suggest correction