Oops, an error
Loading. Please wait.

Whitewater Tab

version 1
version 1

Whole song

Interactive

31,865 views 51 this week
6 commentsread comments
1 2 3 4 5
x 14
add to favorites
launch autoscroll
font size
0
reset
how to read this tab
guitar tuner
×
Best way to learn
"Whitewater"
Autoscroll
slow
fast
+/-
esc
set tempo
stop
desertmusicv1@yahoo.com

Kyuss - Whitewater

Tuning: C  F  A# D# G  C


[00:10]

e|--------------------------------------------------------------------------|
B|--------------------------------------------------------------------------|
G|--------------------------------------------------------------------------|
D|--------------------------------------------------------------------------|
A|------------10----10-s-12~~~------12-s-8----8----8-s-10~~~----------------|
E|-8-s-10--10----12--------------12---------8---8---------------------------|

 (variation)
e|--------------------------------------------------------------------------|
B|--------------------------------------------------------------------------|
G|--------------------------------------------------------------------------|
D|----------------------------------14-s-10----10---10-s-12~~~--------------|
A|------------10----10-s-12~~~---12----------8----8-------------------------|
E|-8-s-10--10----12---------------------------------------------------------|

[00:58]

e|---------|
B|---------|
G|----5--5-|
D|----5--5-|
A|-0--3--3-|
E|---------|

e|--------------------------------------------------------------------------|
B|--------------------------------------------------------------------------|
G|--------------------------------5h7----------------------------5----------|
D|-----5h7----------5h7------5h7--0-------5h7----------5h7-------5--5-------|
A|-0-0-0----0-0-0-0-0----0-0-0--------0-0-0----0-0-0-0-0----0-0--3--5-------|
E|------------------------------------------------------------------3-------|

e|--------------------------------------------------------------------------|
B|--------------------------------------------------------------------------|
G|--------------------------------5------------------------------5----------|
D|-----5h7----------5h7------5h7--0h7-----5h7----------5h7-------5--5-------|
A|-0-0-0----0-0-0-0-0----0-0-0--------0-0-0----0-0-0-0-0----0-0--3--5-------|
E|------------------------------------------------------------------3-------|

[01:21]

e|--------------------------------------------|
B|--------------------------------------------|
G|--------------------------------------------|
D|-5-s-7-7-7-7-7-7-7-7-s-9-9-9-9-9-9h10-10-10-|
A|-0-----0-0-0-0-0-0-0-----0-0-0-0-0-----0--0-|
E|--------------------------------------------|

e|--------------------------------------------|
B|--------------------------------------------|
G|----------------------------5h7-5-----------|
D|-----5h7----------5h7-------5h7-5-----------|
A|-0-0-0----0-0-0-0-0----0-0------------------|
E|--------------------------------------------|

[01:42]

e|---------------------------------------------------|
B|---------------------------------------------------|
G|-5--5-5--------------5-----------5h7-7-7b9r7-5h7p5-|
D|-5--5-5-5----5---5h7-5---5h7-7-7-5h7-7-7b9r7-5h7p5-|
A|-3--3-3-5----5---5h7-----5h7-7-7-------------------|
E|--------3--0-3-0-----------------------------------|

e|---------------------------------------------------|
B|---------------------------------------------------|
G|-5--5-5--------7p5----5h7-7-7-5h7-7p5-5h7-7p5------|
D|-5--5-5-5----5-7p5-7--5h7-7-7-5h7-7p5-5h7-7p5-7----|
A|-3--3-3-5----5-----7--------------------------7----|
E|--------3--0-3-------------------------------------|

e|---------------------------------------------------|
B|---------------------------------------------------|
G|-5--5-5--------------5-----------5h7-7-7b9r7-5h7p5-|
D|-5--5-5-5----5---5h7-5---5h7-7-7-5h7-7-7b9r7-5h7p5-|
A|-3--3-3-5----5---5h7-----5h7-7-7-------------------|
E|--------3--0-3-0-----------------------------------|

e|---------------------------------------------------|
B|---------------------------------------------------|
G|-5--5-5---------7p5----------------------------5---|
D|-5--5-5-5--5-5--7p5---7------------------------5-5-|
A|-3--3-3-5--5-5------7-7------------------------3-5-|
E|--------3--3-3--------5--------------------------3-|

[03:12]

e|-------|
B|-------|
G|-------|
D|-5--7--|
A|-5--7--|
E|-3--5--|

                                 (variation)
e|------------------------------|------------------------------|
B|------------------------------|------------------------------|
G|-------5-----4-------4--------|-------5-7-5---------4--------|
D|-5h7-7---7-7-5--5-5--5--5-5-5-|-5h7-7-------5--5-5--5--5-5-5-|
A|------------------------------|------------------------------|
E|------------------------------|------------------------------|

[03:59]

e|--------------------------------------------------------------------------|
B|--------------------------------------------------------------------------|
G|-9-s-14----14----14----14----14--14-14-----12----12----12---11-11----11---|
D|--------14----14----14----14-----------14----12----12-------------12------|
A|--------------------------------------------------------------------------|
E|--------------------------------------------------------------------------|

e|--------------------------------------------|
B|--------------------------------------------|
G|-12-11--14-12--11h12p11-----11--------------|
D|-------------------------14----14--12-14~~~-|
A|--------------------------------------------|
E|--------------------------------------------|

                                      x2
e|--------------------------------------||
B|--------------------------------------||
G|--------------------------------------||
D|-11-11h12p11--------11-11h12p11-------||
A|-------------10~~~--------------12~~~-||
E|--------------------------------------||

e|--------------------------------------------------------------------------|
B|-----------------------------------------------15-------------------------|
G|-14--12-11-12-11--14-12--11h12p11----11-12-11-----12-11--14-12--11--------|
D|----------------------------------14--------------------------------------|
A|--------------------------------------------------------------------------|
E|--------------------------------------------------------------------------|

e|--------------------------------------------------------------------------|
B|-15------------------15---------------------------------------------------|
G|----12-11--14-12-11-----12-11--14-12-11--11h12p11-----11------------------|
D|---------------------------------------------------14----14-12-14~~~------|
A|--------------------------------------------------------------------------|
E|--------------------------------------------------------------------------|

e|-----------------------|
B|-----------------------|
G|-------12--12-s-14~~~--|
D|-12-14-----------------|
A|-----------------------|
E|-----------------------|

                                                                   x2
e|-15----12-----12----12----12---------15-----12-----12-----12----12-||
B|-12-12----12--10-10----10-----12-12--12--12----12--10--10----10----||
G|-------------------------------------------------------------------||
D|-------------------------------------------------------------------||
A|-------------------------------------------------------------------||
E|-------------------------------------------------------------------||

e|--------------------------------------------------|
B|-10--10-10--10-10--10-10-10-10-10-10-10--10-s-12--|
G|--------------------------------------------------|
D|--------------------------------------------------|
A|--------------------------------------------------|
E|--------------------------------------------------|

e|----------------------------------------------------|
B|--12--12-12--12-12--12-12-12-12-12-12-12--12-s-13---|
G|----------------------------------------------------|
D|----------------------------------------------------|
A|----------------------------------------------------|
E|----------------------------------------------------|

e|----------------------------------------------------|
B|--13--13-13--13-13--13-13-13-13-13-13-13--13-s-15---|
G|----------------------------------------------------|
D|----------------------------------------------------|
A|----------------------------------------------------|
E|----------------------------------------------------|

                                                   2x
e|---------------------------------------------------||
B|--15--15-15--15-15--15-15-15-15-15-15-15--15-------||
G|---------------------------------------------------||
D|---------------------------------------------------||
A|---------------------------------------------------||
E|---------------------------------------------------||


e|--0--0--0--0--0--0--0--0--0--0--0--0--0--0--0--0--|
B|-17-17-17-17-17-17-17-17-17-17-17-17-17-17-17-17--|
G|-14-14-14-14-14-14-14-14-14-14-14-14-14-14-14-14--|
D|--------------------------------------------------|
A|--------------------------------------------------|
E|--------------------------------------------------|

                                             repeat
e|--0--0--0--0--0--0--0--0--0--0--0--0--0--0--0--0-||
B|-17-17-17-15-15-15-17-17-17-15-15-15-17-17-15-15-||
G|-14-14-14-14-14-14-14-14-14-14-14-14-14-14-14-14-||
D|-------------------------------------------------||
A|-------------------------------------------------||
E|-------------------------------------------------||

e|----------------------|
B|----------------------|
G|-14-14-14-14-14~~~~~~-|
D|----------------------|
A|----------------------|
E|----------------------|

[05:51]

e|------------------------------------------------------|
B|------------------------------------------------------|
G|-14--12--11-12-11--14--12--11h12p11----11-12--11~~~---|
D|------------------------------------14----------------|
A|------------------------------------------------------|
E|------------------------------------------------------|


e|------------------------------------------------------|
B|-12-13--15-13--12h13p12-------------------------------|
G|------------------------14--12-12--11~~--12-12--11~~--|
D|------------------------------------------------------|
A|------------------------------------------------------|
E|------------------------------------------------------|

e|-------------------------------|
B|-------------------------------|
G|-12-12--11~~---9--9-9h11--9~~~-|
D|-------------------------------|
A|-------------------------------|
E|-------------------------------|

e|--------------------------------------------------------------------------|
B|-17--17-17-18-17---15-15-15-s-13-13-13-12-13-15-13-12-13-13-13--13-s-15~~-|
G|--------------------------------------------------------------------------|
D|--------------------------------------------------------------------------|
A|--------------------------------------------------------------------------|
E|--------------------------------------------------------------------------|

e|-------------------15--12-13-12--15-13-12--15-13-12--15-13-12-------------|
B|-15--15-s-17~~~-----------------------------------------------------------|
G|--------------------------------------------------------------------------|
D|--------------------------------------------------------------------------|
A|--------------------------------------------------------------------------|
E|--------------------------------------------------------------------------|

e|-13-12-13--13-s-15--------------------------------------------------------|
B|----------------------12-12-12-10-12-10~~~--12-12-12-10~~~-12-12-12-10~~~-|
G|--------------------------------------------------------------------------|
D|--------------------------------------------------------------------------|
A|--------------------------------------------------------------------------|
E|--------------------------------------------------------------------------|

e|--------------------------------------------------------------------------|
B|-12-12-12-10~~~-----------------------------------------------------------|
G|-----------------12--14--14-14--14b16r14---12--14--14-14--14b16r14--------|
D|--------------------------------------------------------------------------|
A|--------------------------------------------------------------------------|
E|--------------------------------------------------------------------------|

e|--------------------------------------------------------------------------|
B|--------------------------------------------------------------------------|
G|-12--14--14-14--14b16r14---12--14-14-14--14b16--14~~~--14~~-x--14~~-------|
D|--------------------------------------------------------------------------|
A|--------------------------------------------------------------------------|
E|--------------------------------------------------------------------------|

       x3                            x4
e|-------||----------------------------||-----------------------------------|
B|-------||----------------------------||-----------------------------------|
G|-14~~~-||-------5------5h7-7-5h7-----||-7-s-9~~~--------------------------|
D|-------||-5h7-7---7p5--5---5-----5-5-||-5-s-7~~~--------------------------|
A|-------||----------------------------||-----------------------------------|
E|-------||----------------------------||-----------------------------------|


Tablature Key:

|------------- hammer on to 3             |-------------|
|--2h3p2------ then pull off              |---x-x-------| muffled string
|------------- back to 2                  |---x-x-------|


|------------- pluck 5 then               |-------------|
|--5b7r5------ bend up until              |-------------| palm muting
|------------- pitch is equal             |-------------|
               to 7, release to 5          pm..........


|------------- slide along string in      |-------------| slide to second
|------4s->--- direction of arrow         |---5-s-7-----| note from first
|-------------                            |-------------|


|-------------|
|------5~~~~~-| string vibrato
|-------------|



************************************

| ~  Vibrato
| h  Hammer-on
| p  Pull-off
| r  Release
| b  Bend
| x  Dead note

************************************
Suggest correction
comments
print report bad tab
6 comments total. Showing first comments.
0 reply
gardenia100 10 Jun 15, 2004 08:00 PM

***ing awsome tab man pretty much parfect from what it sounds like when im playing it! tob job man!

0 reply
michaeldoyle 109 Jul 06, 2006 08:21 AM

same here, nothing but praise man

0 reply
michaeldoyle 109 Jul 08, 2006 10:08 AM

actually there are a few problems with the tab but nearly perfect

guest
You may want to rate the tab now too:
select rating
Wanna post a correction for this tab? Suggest correction