Oops, an error
Loading. Please wait.

Whitewater tab

version 2
version 2

Whole song

Interactive

by Kyuss
4,903 views 15 this week
1 commentread comment
1 2 3 4 5
2 more votes to show rating
add to favorites
×
Save as Personal and add changes to this tab that will be seen only by you. Learn more ›
×
You can save this tab as Personal to edit and correct it or add notes. All changes will be seen only by you. Learn more »
launch autoscroll
font size
0
reset
how to read this tab
guitar tuner
edit
Autoscroll
slow
fast
+/-
esc
set tempo
stop
Author
Whitewater

Kyuss

Tabbed by:Brownbear93

Tuning:C F Bb Eb G C

Intro:
|---------------------------------------------------------------------------|
|---------------------------------------------------------------------------|
|---------------------------------------------------------------------------|
|----------5----5/7--------7\3----3----3/5~---------------5----5/7----------|
|---3/5--5----5--/7------7--\3--3----3--/5~--------3/5--5----5--/7----------|
|---------------------------------------------------------------------------|

|---------------------------------------------------------------------------|
|---------------------------------------------------------------------------|
|----------------------------------------------------9\5----5----5/7--------|
|---7\3----3----3/5~---------------5----5/7--------7--\3--3----3--/5--------|
|-7--\3--3----3-3/5~--------3/5--5----5--/7---------------------------------|
|---------------------------------------------------------------------------|
                                            
                                             
|----------------------------------------------------------------------|
|----------------------------------------------------------------------|
|----------------------------------------------------------------------|
|----------5----5/7--------7\3----3----3/5~---(feedback)--------5-5-2--|
|---3/5--5----5--/7------7--\3--3----3--/5~-------------------0-3-3-0--|
|----------------------------------------------------------------------|

Main Riff:
|------------------------------------------------------------------------------|
|------------------------------------------------------------------------------|
|-------------------------------------------------------------------------5----|
|--5h7------5h7----5h7--------5h7------5h7----5-------5h7------5h7----5h7---7--|
|------0000-----00-----3h5-00-----0000-----00-3--5-00-----0000-----00----------|
|------------------------------------------------3-----------------------------|

|---------------------------------------------------------------------------|
|---------------------------------------------------------------------------|
|---------------------------------------------------------------------------|
|----5h7------5h7----5-------5h7------5h7----5h7--------5h7------5h7----5---|
|-00-----0000-----00-3--5-00-----0000-----00-----3h5-00-----0000-----00-3--5|
|-----------------------3--------------------------------------------------3|

|-----------------------------------------------------|
|-----------------------------------------------------|
|------------------------5----------------------------|
|----5h7------5h7----5h7---7-----5h7------5h7----5----|
|-00-----0000-----00----------00-----0000-----00-3--5-|
|---------------------------------------------------3-|

Verse:
|-----------------------------------------------------------------|
|-----------------------------------------------------------------|
|-----------------------------------------------------------------|
|--5h7-7-7-7-7-7-7-7/9-9-9-9-9/10-10-10----5h7------5h7----5/7-5--|
|--0---0-0-0-0-0-0-0---0-0-0-0-----0--0-00-----0000-----00-3/5-3--|
|-----------------------------------------------------------------|

|-----------------------------------------------------------------|
|-----------------------------------------------------------------|
|----------------------------------------------------------5h7-5--|
|--5h7-7-7-7-7-7-7-7/9-9-9-9-9/10-10-10----5h7------5h7----5h7-5--|
|--0---0-0-0-0-0-0-0---0-0-0-0-----0--0-00-----0000-----00--------|
|-----------------------------------------------------------------|

|-----------------------------------------------------------------|
|-----------------------------------------------------------------|
|-----------------------------------------------------------------|
|--5h7-7-7-7-7-7-7-7/9-9-9-9-9/10-10-10----5h7------5h7----5/7-5--|
|--0---0-0-0-0-0-0-0---0-0-0-0-----0--0-00-----0000-----00-3/5-3--|
|-----------------------------------------------------------------|

|-----------------------------------------------------------------|
|-----------------------------------------------------------------|
|-----------------------------------------------------------------|
|--5h7-7-7-7-7-7-7-7/9-9-9-9-9/10-10-10----5h7------5h7----5/7-7--|
|--0---0-0-0-0-0-0-0---0-0-0-0-----0--0-00-----0000-----00-3/5-5--|
|-----------------------------------------------------------------|


Chorus:
|------------------------------------------------------|
|------------------------------------------------------|
|------------------------5h7-7-7-7br-5-7br-7-5h7-7-5---|
|--5----5-0--------------5h7-7-7-7br-5-7br-7-5h7-7-5---|
|--3--3-3-0--5---5-----3-------------------------------|
|------------3-0-3-3h5---------------------------------|

|------------------------------------------------------|
|------------------------------------------------------|
|--------------------------5h7-7-7-7p5-5-5--5-7-7br-5--|
|--5----5-0----------------5h7-7-7-7p5-5-5--5-7-7br-5-7|
|--3--3-3-0--5---5-5-5p3------------------------------7|
|------------3-0-3-------5-----------------------------|

|------------------------------------------------------|
|------------------------------------------------------|
|------------------------5h7-7-7-7br-5-5-5-7-7b-5------|
|--5----5-0--------------5h7-7-7-7br-5-5-5-7-7b-5-7----|
|--3--3-3-0--5---5-----3--------------------------7----|
|------------3-0-3-3h5---------------------------------|

|-------------------------------------------------------|
|-------------------------------------------------------|
|-------------------------------------------------------|
|--5----5-0--------------------------------------5-5-2--|
|--3--3-3-0--5---5-5-5p3-7---------------------0-3-3-0--|
|------------3-0-3-------5------------------------------|


Main Riff:
|------------------------------------------------------------------------------|
|------------------------------------------------------------------------------|
|-------------------------------------------------------------------------5----|
|--5h7------5h7----5h7--------5h7------5h7----5-------5h7------5h7----5h7---7--|
|------0000-----00-----3h5-00-----0000-----00-3--5-00-----0000-----00----------|
|-------------------------------------------------3----------------------------|

|---------------------------------------------------------------------------|
|---------------------------------------------------------------------------|
|---------------------------------------------------------------------------|
|----5h7------5h7----5-------5h7------5h7----5h7--------5h7------5h7----5---|
|-00-----0000-----00-3--5-00-----0000-----00-----3h5-00-----0000-----00-3--5|
|-----------------------3--------------------------------------------------3|

|-----------------------------------------------------|
|-----------------------------------------------------|
|------------------------5----------------------------|
|----5h7------5h7----5h7---7-----5h7------5h7----5----|
|-00-----0000-----00----------00-----0000-----00-3--5-|
|---------------------------------------------------3-|


2nd Verse:
|-----------------------------------------------------------------|
|-----------------------------------------------------------------|
|-----------------------------------------------------------------|
|--5h7-7-7-7-7-7-7-7/9-9-9-9-9/10-10-10----5h7------5h7----5/7-5--|
|--0---0-0-0-0-0-0-0---0-0-0-0-----0--0-00-----0000-----00-3/5-3--|
|-----------------------------------------------------------------|

|-----------------------------------------------------------------|
|-----------------------------------------------------------------|
|----------------------------------------------------------5h7-5--|
|--5h7-7-7-7-7-7-7-7/9-9-9-9-9/10-10-10----5h7------5h7----5h7-5--|
|--0---0-0-0-0-0-0-0---0-0-0-0-----0--0-00-----0000-----00--------|
|-----------------------------------------------------------------|

|-----------------------------------------------------------------|
|-----------------------------------------------------------------|
|-----------------------------------------------------------------|
|--5h7-7-7-7-7-7-7-7/9-9-9-9-9/10-10-10----5h7------5h7----5/7-5--|
|--0---0-0-0-0-0-0-0---0-0-0-0-----0--0-00-----0000-----00-3/5-3--|
|-----------------------------------------------------------------|

|-----------------------------------------------------------------|
|-----------------------------------------------------------------|
|-----------------------------------------------------------------|
|--5h7-7-7-7-7-7-7-7/9-9-9-9-9/10-10-10----5h7------5h7----5/7-7--|
|--0---0-0-0-0-0-0-0---0-0-0-0-----0--0-00-----0000-----00-3/5-5--|
|-----------------------------------------------------------------|


2nd Chorus:
|------------------------------------------------------|
|------------------------------------------------------|
|------------------------5h7-7-7-7br-5-7br-7-5h7-7-5---|
|--5----5-0--------------5h7-7-7-7br-5-7br-7-5h7-7-5---|
|--3--3-3-0--5---5-----3-------------------------------|
|------------3-0-3-3h5---------------------------------|

|------------------------------------------------------|
|------------------------------------------------------|
|--------------------------5h7-7-7-7p5-5-5--5-7-7br-5--|
|--5----5-0----------------5h7-7-7-7p5-5-5--5-7-7br-5-7|
|--3--3-3-0--5---5-5-5p3------------------------------7|
|------------3-0-3-------5-----------------------------|

|------------------------------------------------------|
|------------------------------------------------------|
|------------------------5h7-7-7-7br-5-5-5-7-7b-5------|
|--5----5-0--------------5h7-7-7-7br-5-5-5-7-7b-5-7----|
|--3--3-3-0--5---5-----3--------------------------7----|
|------------3-0-3-3h5---------------------------------|

|----------------------------------------------------|
|----------------------------------------------------|
|----------------------------------------------------|
|--5----5-0------------------------------------------|
|--3--3-3-0--5-5-5-5p3-7------------5--7-------------|
|------------3-3-------5------------3--5-------------|


Break:
                        
|---------------------------|
|---------------------------|
|--------5-----4-----4------|x2
|--5h7-7-7-5-5-5-5-5-5-5-5--|
|---------------------------|
|---------------------------|

|---------------------------|
|---------------------------|
|--------5-7-5---4-----4----|
|--5h7-7-7-----5-5-5-5-5-5--|
|---------------------------|
|---------------------------|

|---------------------------|
|---------------------------|
|--------5-----4-----4------|x3
|--5h7-7-7-5-5-5-5-5-5-5-5--|
|---------------------------|
|---------------------------|

|---------------------------|
|---------------------------|
|--------5-7-5---4-----4----|
|--5h7-7-7-----5-5-5-5-5-5--|
|---------------------------|
|---------------------------|

|---------------------------|
|---------------------------|
|--------5-----4-----4------|x9
|--5h7-7-7-5-5-5-5-5-5-5-5--|
|---------------------------|
|---------------------------|


Solo:

Guitar 1:
|-----------------------------------------------------------------------------|
|-----10~--10~--10~--10~--8~--8~--8~--8~--7--7~--8-7-10-8-7-7h8p7---7---------|
|--/9----9----9----9----9---9---9---9---9-------------------------9---9-7-9~--|
|-----------------------------------------------------------------------------|
|-----------------------------------------------------------------------------|
|-----------------------------------------------------------------------------|

|---------------------------------------------------------------|
|---------------------------------------------------------------|
|--6--6h7p6-------6--6h7p6--------6--6h7p6--------6--6h7p6------|
|-----------5~-------------7~--------------5~--------------7~---|
|---------------------------------------------------------------|
|---------------------------------------------------------------|

|----------------------------------10------------10------------10------------|
|---10--8-7-8-7-10-8-7h8p7---7-8-7----8-7-10-8-7----8-7-10-8-7----8-7-10-8-7-|
|--------------------------9-------------------------------------------------|
|----------------------------------------------------------------------------|
|----------------------------------------------------------------------------|
|----------------------------------------------------------------------------|

|-----------------------------------|
|-7h8p7---7------------8/10~--------|
|-------9---9-7-9~-7h9--------------|
|-----------------------------------|
|-----------------------------------|
|-----------------------------------|

|--15----12---12-12----12---12------|
|--12-12---12----10-10---10----12-12|x8
|-----------------------------------|
|-----------------------------------|
|-----------------------------------|
|-----------------------------------|

|----12----0-----0-----0-----0-----0--0--0--------0-----0-----0-----0--0----|
|-10---10-10-10-10-10-10-10-10-10-10-10-10/12-12-12-12-12-12-12-12-12-12/13-|
|---------------------------------------------------------------------------|
|---------------------------------------------------------------------------|
|---------------------------------------------------------------------------|
|---------------------------------------------------------------------------|

|-----0-----0-----0-----0--0--0--------0-----0-----0-----0-----0-----0-----0|
|-13-13-13-13-13-13-13-13-13-13/15-15-15-15-15-15-15-15-15\10-10-10-10-10-10|
|---------------------------------------------------------------------------|
|---------------------------------------------------------------------------|
|---------------------------------------------------------------------------|
|---------------------------------------------------------------------------|

|-----0-----0--0--0--------0-----0-----0-----0--0--0--------0-----0-----0---|
|-10-10-10-10-10-10/12-12-12-12-12-12-12-12-12-12-12/13-13-13-13-13-13-13-13|
|---------------------------------------------------------------------------|
|---------------------------------------------------------------------------|
|---------------------------------------------------------------------------|
|---------------------------------------------------------------------------|

|--0--0--0--------0-----0-----0-----0---0---0--0--0--0--0--0--0--0--0--0--0-|
|-13-13-13/15-15-15-15-15-15-15-15-15--15b-15-15-15-15-15-15-15-15-15-15-15-|
|---------------------------------------------------------------------------|
|---------------------------------------------------------------------------|
|---------------------------------------------------------------------------|
|---------------------------------------------------------------------------|

|-0--0--0--0--0--0--0--0--0--0--0--0--0--0--0--0--0--0--0--0--0--0--0--0--0-|
|15-15-15-15-15-15-15-15-15-15-15-15-15-15-15-15-15-15-15-15-15-15-17-17-15-|
|---------------------------------------------------------------------------|
|---------------------------------------------------------------------------|
|---------------------------------------------------------------------------|
|---------------------------------------------------------------------------|

|--0--0--0--0--0--0--0--0--0--0--0--0--0--0--0--0--0--0--0--0--0--0--0--0--0|
|-15-17-17-15-15-17-17-15-15-17-17-15-15-17-17-15-15-17-17-17-15-15-17-17-15|
|---------------------------------------------------------------------------|
|---------------------------------------------------------------------------|
|---------------------------------------------------------------------------|
|---------------------------------------------------------------------------|

|--0--0--0--0--0--0--0--0--0--0--0--0--0--0--0--0--0--0--0--0--0--0--0--0--0|
|-15-17-17-15-15-15-15-15-17-17-17-15-15-15-17-17-15-15-17-17-15-15-17-17-15|
|---------------------------------------------------------------------------|
|---------------------------------------------------------------------------|
|---------------------------------------------------------------------------|
|---------------------------------------------------------------------------|

|--0--0--0--0--0--0--0--0--0--0--0--0---------------------------------------|
|-15-17-17-15-15-17-17-15-15-17-17-17---------------------------------------|
|---------------------------------------------------------------------------|
|---------------------------------------------------------------------------|
|---------------------------------------------------------------------------|
|---------------------------------------------------------------------------|


Guitar 2:
|------0-----0-----0----0----0----0----0----0----0----0---------------------|
|-/10-10-10-10-10-10-10-8--8-8--8-8--8-8--8-8--8-8--8-8\7--------8-7-10-8-7~|
|---------------------------------------------------------------------------|
|---------------------------------------------------------------------------|
|---------------------------------------------------------------------------|
|---------------------------------------------------------------------------|

|---------------------------------------------------------------------------|
|---------------------------------------------------------------------------|
|--6-6h7p6-/9~---6-6h7p6-/9~---6-6h7p6-/9~-----11--9------------------------|
|---------------------------------------------------------------------------|
|---------------------------------------------------------------------------|
|---------------------------------------------------------------------------|

|---------------------------------------------------------------------------|
|--10--8-7-8-7-10-8-7h8p7---7-8-7-10-8-7-7h8p7---7-8-7-10-8-7-7h8p7---7-8-7-|
|-------------------------9--------------------9--------------------9-------|
|---------------------------------------------------------------------------|
|---------------------------------------------------------------------------|
|---------------------------------------------------------------------------|

|-----------------------------15--12-15-12-10---10-12-10-12--15--12-15-12-10|
|-10-8-7-7h8p7---7-8/10~----------------------------------------------------|
|--------------9------------------------------------------------------------|
|---------------------------------------------------------------------------|
|---------------------------------------------------------------------------|
|---------------------------------------------------------------------------|

|-15--12-15-12-10---10-12-10-12--15--12-12-12-12-x-12-x--12---10-12-10-9-9--|
|---------------------------------------------------------------------------|
|---------------------------------------------------------------------------|
|---------------------------------------------------------------------------|
|---------------------------------------------------------------------------|
|---------------------------------------------------------------------------|

|--9-10-9-10-9--12-10-12-/15-15-15-15-14-12--12-10-12-12--15-15-15-14-12----|
|---------------------------------------------------------------------------|
|---------------------------------------------------------------------------|
|---------------------------------------------------------------------------|
|---------------------------------------------------------------------------|
|---------------------------------------------------------------------------|

|-12-10--12-12--------------------------------------------------------------|
|---------------------------------------------------------------------------|
|----------------14--14-14--14-14--14-14-14--14-14--14-14--14-14--14-14--14-|
|---------------------------------------------------------------------------|
|---------------------------------------------------------------------------|
|---------------------------------------------------------------------------|

|---------------------------------------------------------------------------|
|---------------------------------------------------------------------------|
|14--14-14--14-14--14-14--14-14--14-14--14-16--16-16-17-14--14--14-14--14-14|
|---------------------------------------------------------------------------|
|---------------------------------------------------------------------------|
|---------------------------------------------------------------------------|

|---------------------------------------------------------------------------|
|---------------------------------------------------------------------------|
|-14-14-14--14-14--14-14--14-14--14-14--14-14--14-14--14-14--14-14--14-14---|
|---------------------------------------------------------------------------|
|---------------------------------------------------------------------------|
|---------------------------------------------------------------------------|

|---------------------------------------------------------------------------|
|---------------------------------------------------------------------------|
|--14-14--14-16--16-16-17-14-14-14-14-14-14-14-14-14-14-14-14-14-14-14-14-14|
|---------------------------------------------------------------------------|
|---------------------------------------------------------------------------|
|---------------------------------------------------------------------------|

|---------------------------------------------------------------------------|
|---------------------------------------------------------------------------|
|-14-14-14-14-14-14-14-14-14-14-14-14-14-14-14-14-14-14-14-14-14-14-14-14-14|
|---------------------------------------------------------------------------|
|---------------------------------------------------------------------------|
|---------------------------------------------------------------------------|

|---------------------------------------------------------------------------|
|---------------------------------------------------------------------------|
|-14-14-14-14-14-14-14-14-14-14-14-14-14-14-14-14-14-14-14-14-14-14-14-14-14|
|---------------------------------------------------------------------------|
|---------------------------------------------------------------------------|
|---------------------------------------------------------------------------|

|---------------------------------------------------------------------------|
|---------------------------------------------------------------------------|
|-14-14-14-14-14-14-14-14-14-14-14-14-14-14-14-14-14-14-14-14-14-14-14-14-14|
|---------------------------------------------------------------------------|
|---------------------------------------------------------------------------|
|---------------------------------------------------------------------------|

|---------------------------------------------------------------------------|
|---------------------------------------------------------------------------|
|-14-14-14-14-14-14--14--14--14--14----14~----------------------------------|
|---------------------------------------------------------------------------|
|---------------------------------------------------------------------------|
|---------------------------------------------------------------------------|


Quiet Solo:
|-------------------------------------------7-8---10-8--7h8p7---------------|
|--10--8-7-7-8-7-10-8-7h8p7---7-8-7~--------------------------10~---8-8-7~--|
|---------------------------9-----------------------------------------------|
|---------------------------------------------------------------------------|
|---------------------------------------------------------------------------|
|---------------------------------------------------------------------------|

|-----------------------------------------12-12-12-13-12---10-10-10-10\8-8--|
|---8-8-7~---8-8-7~---------------------------------------------------------|
|-------------------9--9-9h11-9~--------------------------------------------|
|---------------------------------------------------------------------------|
|---------------------------------------------------------------------------|
|---------------------------------------------------------------------------|

|-8\7-7-8-10-8-7-8--8-8/10--10-10/12---------15-12-13--15-13-12-15-13-12-15-|
|---------------------------------------------------------------------------|
|---------------------------------------------------------------------------|
|---------------------------------------------------------------------------|
|---------------------------------------------------------------------------|
|---------------------------------------------------------------------------|

|-13-12--13-12-13---15------------------------------------------------------|
|------------------------------12-12-12p9-12-9-------12-12-12-9-------------|
|---------------------------------------------------------------------------|
|---------------------------------------------------------------------------|
|---------------------------------------------------------------------------|
|---------------------------------------------------------------------------|

|---------------------------------------------------------------------------|
|--12-12-12-9--------12-12-12-9---------8-10--8-10-10br----8-10--8-10-10br--|
|---------------------------------------------------------------------------|
|---------------------------------------------------------------------------|
|---------------------------------------------------------------------------|
|---------------------------------------------------------------------------|

|---------------------------------------------------------------------------|
|--8-10--8-10-10br---8-10--8-10-10br--10-----------10----------10-----------|
|---------------------------------------------------------------------------|
|---------------------------------------------------------------------------|
|---------------------------------------------------------------------------|
|---------------------------------------------------------------------------|

|--------------------------------------------|
|--10-------------10------------10-----------|
|--------------------------------------------|
|--------------------------------------------|
|--------------------------------------------|
|--------------------------------------------|


Outro:
|--------------------------------|
|--------------------------------|
|-------------5---5h7-7---7------|x7
|-------5h7-7---7-------5--------|
|--------------------------------|
|--------------------------------|

|-----------------------------------|
|-----------------------------------|
|-------------5---5h7-7---7-----/9--|
|-------5h7-7---7-------5---5---/7--|
|-----------------------------------|
|-----------------------------------|

************************************

| /   slide up
| \   slide down
| h   hammer-on
| p   pull-off
| ~   vibrato
| +   harmonic
| x   Mute note
| b   Bend
| pb  Pre-bend
| br  Bend release
| pbr Pre-bend release
| brb Bend release bend
| tr  tremelo pick

************************************

            
            
Suggest correction
Creating personal tab
Creating personal tab
You can edit any tab online and save it as your Personal.

You can edit, replace or remove any tab part or add personal notes – all changes will be seen only by you.

Personal tabs can be accessed anytime from any device, even offline.
Learn more »
Give kudos to tab author, rate the tab!
1 2 3 4 5
comments
print report bad tab
1 comment total.
0 reply
Antpetitt 166 Apr 12, 2013 06:44 PM

Awesome! Your Kyuss tabs are always spot on.

guest
You may want to rate the tab now too:
select rating
Wanna post a correction for this tab? Suggest correction