Oops, an error
Loading. Please wait.

Cool Out tab

by L7
437 views 3 this week
no commentswrite comment
1 2 3 4 5
1 last vote to show rating
add to favorites
×
Save as Personal and add changes to this tab that will be seen only by you. Learn more ›
×
You can save this tab as Personal to edit and correct it or add notes. All changes will be seen only by you. Learn more »
launch autoscroll
font size
0
reset
how to read this tab
guitar tuner
edit
Autoscroll
slow
fast
+/-
esc
set tempo
stop
Author
Difficulty
L7 - Cool Out
From self titled album "L7" (1988)
Tabbed By Hayden; Standard Tuning 
Date: 21/4/12

Intro: 
e|---------| 
B|---2-----|
G|-----2---|
D|-------2-|
A|-0-------|
E|---------|

Semi-Verse: 
e|--------------------0-----------|
B|---2------------------1---2-----|
G|-----2-----1----------------2---|
D|-------2-----2----------------2-|
A|-0-------------2--3-----0-------|
E|---------0----------------------|

Verse:
e|---------------------------------------|
B|---------------------------------------|
G|---------------------------------------|
D|-7--7--5--2--2--5--10-10-9--7--7--10-9-|
A|-7--7--5--2--2--5--10-10-9--7--7--10-9-|
E|-5--5--3--0--0--3--8--8--7--5--5--8--7-|

Chorus:
e|------------------------------------------------------|
B|------------------------------------------------------|
G|------------------------------------------------------|
D|-5-5-4-5-5-4-5-5-5-7-7-7-7--5-5-4-5-5-4-5-5-5-2-2-2-2-|
A|-5-5-4-5-5-4-5-5-5-7-7-7-7--5-5-4-5-5-4-5-5-5-2-2-2-2-|
E|-3-3-2-3-3-2-3-3-3-5-5-5-5--3-3-2-3-3-2-3-3-3-0-0-0-0-|

e|--------------------------------------------------------|
B|--------------------------------------------------------|
G|------------------------------------------4-4-4-4-4-4-4-|
D|-5-5-4-5-5-4-5-5-5-7-7-7-7--5-5-4-5-5-4-5-4-4-4-4-4-4-4-|
A|-5-5-4-5-5-4-5-5-5-7-7-7-7--5-5-4-5-5-4-5-2-2-2-2-2-2-2-|
E|-3-3-2-3-3-2-3-3-3-5-5-5-5--3-3-2-3-3-2-3---------------|

Mini Breakdown
e|-------------|x3 e|-----------|x1
B|-------------|   B|-----------|
G|-------------|   G|-----------|
D|-2-2-2-3-5-3-|   D|-2-2-3-5-6-|
A|-2-2-2-3-5-3-|   A|-2-2-3-5-6-|
E|-0-0-0-1-3-1-|   E|-0-0-1-3-4-|

Final Verse - Ending
e|------------------------------|
B|------------------------------|
G|------------------------------|
D|-7--7--5--2--2--5--10-10-9--7-|
A|-7--7--5--2--2--5--10-10-9--7-|
E|-5--5--3--0--0--3--8--8--7--5-|

Solo (Guitar 2)
e|-------------------------8---------------------|
B|---------------------------10-8----------------|
G|------8-9------9------9---------9-8~~~~-9-8----|
D|-7-10-----7-10---7-10-----------------------10-|
A|-----------------------------------------------|
E|-----------------------------------------------|

e|-----------------------8-----------------------|
B|-------------------------10-8------------------|
G|------9------9------9---------9-8~~~~~~~~~~~~~~|
D|-7-10---7-10---7-10----------------------------|
A|-----------------------------------------------|
E|-----------------------------------------------|

Order:
Intro x1
Semi-Verse x4
Verse x4
Chorus x1
Verse x4 + Solo x1 simultaneously
Mini-Breakdown x1
Verse x4
Chorus x1
Verse x4 + Solo x1 simultaneously
Mini-Breakdown x 1
Final Verse x4 (Pause after each time for bass and drum solos). 


- - - - - - - - - - - - - - - - - - - - - - - - - - - - *
Notes:

- The semi verse can also be played as barre chords, If you can play them 
  then you should be able to work out how to do it and where.  
- The solo is a bit iffy but it's my first guitar tab, i usually do bass.
  if you're unhappy with the solo and know a better way, just let me know and i'll 
  correct it. saves having multiple versions of the same tab when we can get it right
  in just the one. also the '~~' during the solo, just bend the strings a bit
  or keep plucking, your move. 
- The verse is right where it is, but as long as you can hit the same root note, play
  the chords wherever you feel comfortable. I just went with the E string all the way
  for simplicity sake. 

Enjoy!

            
            
Suggest correction
Creating personal tab
Creating personal tab
You can edit any tab online and save it as your Personal.

You can edit, replace or remove any tab part or add personal notes – all changes will be seen only by you.

Personal tabs can be accessed anytime from any device, even offline.
Learn more »
Give kudos to tab author, rate the tab!
1 2 3 4 5
comments
print report bad tab
guest
You may want to rate the tab now too:
select rating
Wanna post a correction for this tab? Suggest correction